Song name
# A B C D E F G H I J K L M N O P Q R S T U V W X Y Z

Misc Unsigned Bands - Sures - Poseidon chords

Highlighted       Show chord diagrams
Tabbed by: iBcapncrunch
Send Revisions to: aus.dean@live.com 

I realise that the lyrics may be incorrect, but as I've failed to find any lyrics 
posted yet; official or otherwise. 
This is just my interpretation.. Please enjoy :)

P.S Oh! send lyric revisions and obviously chord/solo revisions to the above email, ta.

---------------------------------------------------------

Intro: C Em Dm G

C   Em      Dm         G
Pre-Madonna said to my brother
Em      Am              F           G
dream a dreams to be as good as our mother
C          Em     Dm       G
all that I ask is hold one another
Em       Am               F          G
when the darkness follows you in the corner

Em                           Am
Genny you're late to hear my voice
        F                         G
with my guidance she will make it through
             C
and never be alone
 Em    Dm    G   Em  Am  F  G        G(opt.)
(harmonies: oooh's, ahhh's) darling, darling

C        Em        Dm           G
Only the best will stand up and conquer 
Em      Am              F               G
men and children gather stones and then shelter
C        Em         Dm        G
only the young will carry the story 
Em     Am         F          G
of the people who became the survivors

Em                                         Am
Navi(? lol, zelda.) you're late to hear my voice
     F                      G
like Poseidon I control the voice
               C    (/    C     )
to make it all alone(/out alive?)
Em Dm G Em Am F G
(harmonies)       darling, darling

C Em Dm G Em Am F G
    (harmonies)   darling, darling

Em                                 Am
All hear her speak through all the noise
Em                        Am
seen before all the other boys
        F                         G
with my guidance she will make it through AND....
SHE'LL NEVER BE ALONE! 

SOLO:(not perfect for rhythm... use the actual song ;) should be the correct notes however)

   C        Em        Dm        G        Em         Am        F        G
E||12-10-------------------------------------------------------------------|
B||------13-12-------------------------------------------------------------|
G||------------12-----14--12-10------------12--12--------------------------|
D||-----------------------------14--12---14--14--14-12-10-12-10-9----------|
A||--------------------------------------------------------------12-10--7-5|
E||------------------------------------------------------------------------|
                                                                       Darling, darling.

   C        Em        Dm        G        Em        Am        F        G
E||12-10--------------13-12-10-----------10-17-15-12-15-12-15--------17-15-17-15-|
B||-----13--12------------------13-12-13-----------------------------------------|
G||------------12----------------------------------------------------------------|
D||------------------------------------------------------------------------------|
A||------------------------------------------------------------------------------|
E||------------------------------------------------------------------------------|
                                                                      Darling, darling.
   C     
E||------|
B||13----|
G||------|
D||------|
A||------|
E||------|

Outro: Em Dm G Em Am F G C Em
Tap to rate this tab
 
# A B C D E F G H I J K L M N O P Q R S T U V W X Y Z