Song name
# A B C D E F G H I J K L M N O P Q R S T U V W X Y Z

Misc Unsigned Bands - Rac - Hollywood tab

Hollywood
RAC feat. Penguin Prison

This tab is not 100%, so please leave comments with corrections. I'm still new to 
figuring out songs by ear, so I hope this isn't wildly off.

General verses/chorus:

e|-8-6-4-4---|
B|--------4-4|
G|-----------|
D|-----------|
A|-----------|
E|-----------|

At the verse before the chorus:

e|-8-6-4-4--|
B|--------4-|
G|----------|
D|----------|
A|----------|
E|----------|

Riff:

e|-6-8-6-4---|-6-8-6-4--|-6-8-6-4---|---------|
B|--------4-4|--------4-|---------4-|--4------|
G|-----------|----------|-----------|-6-6-5---|
D|-----------|----------|-----------|---------|
A|-----------|----------|-----------|---------|
E|-----------|----------|-----------|---------|

Chords

C# ? / C# G#

Again, totally not 100%, please leave your corrections in the comments below!

I do not own this song, but I am a fan. This song is catchy. So good.
Tap to rate this tab
# A B C D E F G H I J K L M N O P Q R S T U V W X Y Z