Song name
# A B C D E F G H I J K L M N O P Q R S T U V W X Y Z

Misc Unsigned Bands - All Faces Down - Days Like These tab

ALL FACES DOWN - Days like these

tuning C#
C#
G#
C#
F#
A#
D#


intro

----------------------------------------------------------------|
----------------------------------------------------------------|
---------------10---3-------------------------------------------|
0----5----8--------------0----5----8----3----5------------------|
0----8----8----8----5----0----8----8----3----5------------------|
0----0----8--------------0----0----8----3----5------------------|


1st verse

-----------------------------------------------------------------|
-----------------------------------------------------------------|
-----------------------------------------------------------------|
0-0----0-0----0-0----8--3--5--0-0----0-0----0-0----8--3--5-------|x2
0-0----0-0----0-0----8--3--5--0-0----0-0----0-0----8--3--5-------|
0-0----0-0----0-0----8--3--5--0-0----0-0----0-0----8--3--5-------|


1st verse
2nd guitar

---------------------------------|
---------------------------------|
---------------------------------|
0--8-7-0-----0-10-8-0-----0-8-10-|
---------7-8----------8-10-------|
---------------------------------|


----------------------------------|
----------------------------------|
----------------------------------|
0--8-7-0-----0-10-8-0-----0-10-12-|
---------7-8----------8-10--------|
----------------------------------|


corus

----------------------------------------------------------------|
----------------------------------------------------------------|
---------------10---3-------------------------------------------|
0----5----8--------------0----5----8----3----5------------------|
0----8----8----8----5----0----8----8----3----5------------------|
0----0----8--------------0----0----8----3----5------------------|


2nd verse

-----------------------------------------------------------------|
-----------------------------------------------------------------|
-----------------------------------------------------------------|
0-0----0-0----0-0----8--3--5--0-0----0-0----0-0----8--3--5-------|x2
0-0----0-0----0-0----8--3--5--0-0----0-0----0-0----8--3--5-------|
0-0----0-0----0-0----8--3--5--0-0----0-0----0-0----8--3--5-------|


2nd verse
2nd guitar

---------------------------------|
---------------------------------|
---------------------------------|
0--8-7-0-----0-10-8-0-----0-8-10-|
---------7-8----------8-10-------|
---------------------------------|


----------------------------------|
----------------------------------|
----------------------------------|
0--8-7-0-----0-10-8-0-----0-10-12-|
---------7-8----------8-10--------|
----------------------------------|


breakdown

----------------------------------------------------------------|
----------------------------------------------------------------|
-----------------------7777------------------------3333---------|
00--0--00-0--00-0--00-------00--0--00-0--00-0--00---------------|
00--0--00-0--00-0--00--5555-00--0--00-0--00-0--00--1111---------|
00--0--00-0--00-0--00-------00--0--00-0--00-0--00---------------|
Tap to rate this tab
# A B C D E F G H I J K L M N O P Q R S T U V W X Y Z