Song name
# A B C D E F G H I J K L M N O P Q R S T U V W X Y Z

Misc Unsigned Bands - Jeppes - Dramatic Song tab

 tobuscus cover

Rhythm Chords
----------------------------------------------|
----------------------------------------------|
--5----3--------------------------------------|
--5----3----6--5------------------------------|
--3----1----6--5------------------------------|
------------4--3------------------------------|

Basic Lead Riff (variations of this are played)
-----------------------------------------------------------------|
-----------------------------------------------------------------|
--5-5-5------------3-3-3-----------------------------------------|
--5-5-5-3h5-5------3-3-3-1h3-1------6-6-6------------5-5-5-5-----|
--3-3-3-------6-3--1-1-1-------3-1--6-6-6-3h6-3------5-5-5-5-----|
------------------------------------4-4-4-------6-4--3-3-3-3-----|

Solo:
---------------------------------------------------------|
---------------------------------------------------------|
-----/12-10-8-10---/12-10-8---/10-8-7h8p7---8-7-8-8-5----|
--10-------------8----------6-------------5--------------|
---------------------------------------------------------|
---------------------------------------------------------|

www.youtube.com/user/TheJeppesMusic
Tap to rate this tab
 
# A B C D E F G H I J K L M N O P Q R S T U V W X Y Z