Song name
# A B C D E F G H I J K L M N O P Q R S T U V W X Y Z

Misc Unsigned Bands - Aak - Anti Hero tab

Help us improve GuitareTab! Take a short survey!
Band : AAK
Song : ANTI HERO


-----------------------------------------------------------------------------
-----------------------------------------------------------------------------
-----------------------------------------------------------------------------
-----------------------------------------------------------------------------
---------------4-4-4-4-4-4--------------4-3-4-3-------------3-4-3-4----------
--5-5-5-5-5-5--------------4-4-4-4-4-4----------1-1-1-1-1-1------------------


-----------------------------------------------------------
-----------------------------------------------------------
-----------------------------------------------------------
-----------------------------------------------------------
---------------------------5--7----------------------------
--7-7-7---9-9-9---10-10-10-5--7----------------------------



my very own band on the internet im so pround (sob sob)
Related for Aak - Anti Hero tab