Song name
# A B C D E F G H I J K L M N O P Q R S T U V W X Y Z

Misc Unsigned Bands - Jerry Mcyork - Leather Blues Riff tab

This a little blues riff I wrote. Choose your own pace. Meant for Acoustic guitar, 
but could be played by an electric guitar.


e|-----------2------3-5-7-10-12-------------11-11---|
B|-0-0-0-0-2-------2------------12-10--11-13------11|
G|-------------0-0-------------------12-------------|
D|------------4-------------------------------------|
A|--------------------------------------------------|
E|--------------------------------------------------|
              Beginning ^

e|--------0-3---------------------2--------3-6------|
B|-10-0-3--------------------------3-0-3-0-----8----|
G|------------------------------2-------------------|
D|-------------------0-2----------------------------|
A|---------------0-2----------0---------------------|
E|-----------0-3--------3-0-2-----------------------|
               Middle ^
               Ending Below
e|--------------------------------------------------|
B|--------------------------------------------------|
G|--------------------------------------------------|
D|--------------------------------------------------|
A|--------------------------------------------------|
E|-10-8-7-5-3-2-0-----------------------------------|
Tap to rate this tab
# A B C D E F G H I J K L M N O P Q R S T U V W X Y Z