Song name
# A B C D E F G H I J K L M N O P Q R S T U V W X Y Z

Misc Unsigned Bands - Tim Hassall - Lips tab

-------------------------------------------------------------------------------
                             Lips - Tim Hassall
-------------------------------------------------------------------------------

iTunes: http://itunes.apple.com/us/album/oh-restless-heart/id516708461
Facebook: http://www.facebook.com/timhassallmusic
Twitter: http://www.twitter.com/timhassallmusic
Youtube: http://www.youtube.com/timhassallmusic
Mailing List: http://timhassall.com
All music and lyrics  Tim Hassall 2010

Notes: tuned down  step + a bit


Part A.
e|----------2-----|
B|------3------3--|
G|---4------------|
D|-0---0---0--0---|
A|----------------|
E|----------------| x4
 
Part B.                          Part C.
e|-----------0-----|       e|---------0-------------0----|--------0---|
B|-------3-------3-|       B|-----3------3-------3-----3-|----3------3|
G|---0-------------|       G|--0--------------0----------|-0----------|
D|-4---4---4---4---|       D|----------------------------|------------|
A|-----------------|       A|-2--2--2---2---0--0--0---0--|------------|
E|-----------------| x4    E|----------------------------|3--3--3---3-|x3

Part D
e|----------------|
B|----------------|
G|---0---0---0---0|
D|-----3---3---3--|   
A|----------------|
E|-3--------------|

Part E (substitute in last measure of A.- as a lick)
e|----------------0|
B|------3-------0--|
G|---4-------------|
D|-0---0---0h2h4---|
A|-----------------|
E|-----------------|

Part F.                                    (Part F. cont.)
e|----------2--0-------------|   --------2--0--5--5--5--5-|
B|------3---------3-----3----|   -----3-------------------|
G|---4---------------4-----4-|   --4----------------------|
D|-0---0---0--0--0--0--0--0--|   -0--0--0--0--0--0--0--0--|
A|---------------------------|   -------------------------|
E|---------------------------|x3 -------------------------|

Part G.
------5--------5--------5--------5--------2-0--5-5-5-5-|
----3---3----3---3----3---3----3---3----3--------------|
--4--------4--------4--------4--------4----------------|
-------------------------------------------------------|
-2-2-2-2--2-2-2-2--------------------0-0-0-0--0-0-0-0--|
-------------------3-3-3-3--3-3-3-3--------------------|

A. (intro)

A.
I can taste your lips

                                                   B.
I can taste your lips against my lips

A.
I can taste your hips
                                                    B. (1/2 length)
I can taste your hips against my lips
    C.                                                                   D. A. (with E.) 
Our memories are salt in my sea, and the honey in my tea

A. 
Little butterfly skipping so way up high 
                B.
into the moon
                          C.
The salvia kicked in much too soon
C.
Turn off the light your coming home
                        
to the sound of a wailing moan
 
F. (Instrumental break)

G.
I want to see you smile
i want to see you smile when i close my eyes
into the night

I want to see you smile
i want to see you smile for miles and miles
for miles and miles

I want to see your eyes
I want to see your eyes reflect in the sky
reflect in the sky


Outro: A. with E. substituted in last measure 
Tap to rate this tab
 
# A B C D E F G H I J K L M N O P Q R S T U V W X Y Z