Song name
# A B C D E F G H I J K L M N O P Q R S T U V W X Y Z

Misc Unsigned Bands - Infection - Inside Sex Art tab

'Inside (Sex Art) cover' by Infection


Tuning: E A D G B E

Note: listen to record for timing.

1ST RIFF
(Heavy Distortion - Tremolo picking)

e|-------------------------|Repeat   e|---------------------|Last
B|-------------------------|         B|---------------------|
G|-------------------------|         G|---------------------|
D|-------------------------|         D|---------------------|
A|-------------------------|         A|---------------------|
E|--3-3-3-3-3-3-2---3-2----|         E|--3-3-3-3-3-3-3-3-0--|

2ND RIFF
(Heavy Distortion)

e|-------------------------------------------------|
B|-------------------------------------------------|
G|-----------------4-------------------------------|  
D|-------------2-4---------------------------------|
A|-------------------------------------------------|
E|---0-0-0-0-0-------------------------------------|

3RD RIFF
(Heavy Distortion)

e|-------------------------------------------------|
B|-------------------------------------------------|
G|-------------------------------------------------|  
D|-------------------------------------------------|
A|-------------------------------------------------|
E|---0-0-0-0-0-0-3-2-1-----------------------------|


4TH RIFF
(Clean)

e|-------------------------------------------------|Repeat
B|---------8-----------8-----------7-----------7---|
G|-----8-9---9-----8-9---9-----7-8---8-----7-8---8-|  
D|---9-----------9-----------8-----------8---------|
A|-------------------------------------------------|
E|-------------------------------------------------|

end
Tap to rate this tab
 
# A B C D E F G H I J K L M N O P Q R S T U V W X Y Z