Song name
# A B C D E F G H I J K L M N O P Q R S T U V W X Y Z

Misc Unsigned Bands - The Babies - Caroline tab

My love for this song will never end.
Couldn't find a tab for it anywhere so I tabbed it myself.
It's incomplete at the moment but I'll update it when I figure the rest out.

e|-12-9------12-9------------12-9-------------------------------|
B|------12-9------12-9-12-9-------12-9--------------------------|
G|-------------------------------------11-11--9-----------------|  x 2
D|--------------------------------------------------------------|
A|--------------------------------------------------------------|
E|--------------------------------------------------------------|

e|-------7--------7-----------7---------------------------------|
B|---7-9------7-9--9-7----7-9---9-7-777-------------------------|
G|-9--------9-----------9---------------9-----------------------|
D|--------------------------------------------------------------|
A|--------------------------------------------------------------|
E|--------------------------------------------------------------|

e|-12-9------12-9------------12-9-------------------------------|
B|------12-9------12-9-12-9-------12-9--------------------------|
G|-------------------------------------11-11--9-----------------|  x 2
D|--------------------------------------------------------------|
A|--------------------------------------------------------------|
E|--------------------------------------------------------------|

e|-------7--------7-----------7---------------------------------|
B|---7-9------7-9--9-7----7-9---9-7--7--------------------------|
G|-9--------9-----------9---------------9-----------------------|
D|--------------------------------------------------------------|
A|--------------------------------------------------------------|
E|--------------------------------------------------------------|
Tap to rate this tab
# A B C D E F G H I J K L M N O P Q R S T U V W X Y Z