Song name
# A B C D E F G H I J K L M N O P Q R S T U V W X Y Z

Misc Unsigned Bands - Lumberjaxxx - Logjam tab

Tabbed by: GuitarMan147 (biscuitbass...)

This is a really cool song, if you're wondering what it is - it was on a
Berocca advert with two guys, on a log, dancing XD oh and yeah, the band
name is pretty wierd, but i bought the song off Amazon and that's what it
was called :L

Anyway, i figured out the sort of bassline bit (it basically plays all the
way through the song), which you  can just play on guitar or bass, and i've
done this in 2 ways...


The first way is:

e|-------------------------------------------------------|
B|-------------------------------------------------------|
G|-------------------------------------------------------|
D|-------------------------------------------------------|
A|-----------8---6-6-6-6-8-------------------------------|
E|---8----6-----------------8----------------------------|



The second way is an octave above:

e|-------------------------------------------------------|
B|-------------------------------------------------------|
G|------------10---8-8-8-8-10----------------------------|
D|---10----8-------------------10------------------------|
A|-------------------------------------------------------|
E|-------------------------------------------------------|



Hope it helps!
Tap to rate this tab
# A B C D E F G H I J K L M N O P Q R S T U V W X Y Z