Song name
# A B C D E F G H I J K L M N O P Q R S T U V W X Y Z

Misc Unsigned Bands - Mariee Sioux - Buried In Teeth tab

-------------------------------------------------------------------------------
                             Buried In Teeth - Mariee Sioux
-------------------------------------------------------------------------------
Tabbed by: reedoo

Tuning: Standard

Capo on 1st


INTRO

 Em
e|---------------------------------------------------------------------------|
B|----8-------8---8-------8---8-------8---8-------8---8-------8---8-------8--|
G|----9-----9-----9-----9-----9-----9-----9-----9-----9-----9-----9-----9----|
D|----9---9-------9---9-------9---9-------9---9-------9---9-------9---9------|
A|--7-----------7-----------7-----------7-----------7-----------7------------|
E|------0-----------0-----------0-----------0-----------0-----------0--------|


VERSE

 Em
e|---------------------------------------------------------------------------|
B|----8-------8---8-------8---8-------8---8-------8---8-------8---8-------8--|
G|----9-----9-----9-----9-----9-----9-----9-----9-----9-----9-----9-----9----|
D|----9---9-------9---9-------9---9-------9---9-------9---9-------9---9------|
A|--7-----------7-----------7-----------7-----------7-----------7------------|
E|------0-----------0-----------0-----------0-----------0-----------0--------|

 C             G           D                       Em
e|----0-------0---3-------3---2-------2---2-------2--------------------------|
B|----1-----1-----0-----0-----3-----3-----3-----3-----8-------8---8-------8--|
G|----0---0-------0---0-------2---2-------2---2-------9-----9-----9-----9----|
D|------2-----------0-------0-----------0-------------9---9-------9---9------|
A|--3---------------------------0-----------0-------7-----------7------------|
E|--------------3---------------------------------------0-----------0--------|

 C             G           D
e|----0-------0---3-------3---2-------2---2-------2--|
B|----1-----1-----0-----0-----3-----3-----3-----3----|
G|----0---0-------0---0-------2---2-------2---2------|
D|------2-----------0-------0-----------0------------|
A|--3---------------------------0-----------0--------|
E|--------------3------------------------------------|


CHORUS

 Em                        D             Em      
e|----------------------------2---------2---0-------0---7--------------------|
B|----8-------8---8-------8---3-------3-----0-----0-----8-------8------------|
G|----9-----9-----9-----9-----2-----2-------0---0-------9-----9--------------|
D|----9---9-------9---9-----------0-------------------------9----------------|
A|--7-----------7-----------0-----------------2-------7----------------------|
E|------0-----------0---------------------0---------------0------------------|

 Am            D           Em
e|----5-----------2-------2---0-------0---------------|
B|----5-------5---3-----3-----0-----0-----------------|
G|----5-----5-----2---2-------0---0-------------------|
D|--------5---------0---------------------------------|
A|------7-------0---------------2---------------------|
E|--5-----------------------0-------------------------|


C-PART

 C                  G                Am
e|--------0----------------3----------------0----------------0---------------|
B|--------1----------------0----------------1----------------1---------------|
G|----0---0----0---0---0---0----0---0---2---2----2---2---2---2----2---2------|
D|------2--------2-------0--------0-------2--------2-------2--------2--------|
A|--3---------------------------------0----------------0---------------------|
E|-------------------3-------------------------------------------------------|

 C                                   G
e|--------0----------------0----------------3----------------3---------------|
B|--------1----------------1----------------0----------------0---------------|
G|----0---0----0---0---0---0----0---0---0---0----0---0---0---0----0---0------|
D|------2--------2-------2--------2-------0--------0-------0--------0--------|
A|--3----------------3-------------------------------------------------------|
E|------------------------------------3----------------3---------------------|

 C                                   G
e|--------0----------------0----------------3----------------3---------------|
B|--------1----------------1----------------0----------------0---------------|
G|----0---0----0---0---0---0----0---0---0---0----0---0---0---0----0---0------|
D|------2--------2-------2--------2-------0--------0-------0--------0--------|
A|--3----------------3-------------------------------------------------------|
E|------------------------------------3----------------3---------------------|


LYRICS & ORDER OF PARTS

(INTRO)
(PLAY VERSE SEVERAL TIMES)
Buried in teeth
Buried in teeth
Buried in teeth
Can't tell if I've got black roots or braids
Growing out of my head
Grandfather's eating our grains

Buried in teeth
Buried in teeth
Buried in teeth
Can't tell if I've got rivers or veins
Running under my skin
Flowing out over the plains
There's trapped antennae
All tangled up with these brains
And the spin of cocoons whispers your names

(PLAY CHORUS)
While the crash of molars it sifts us downward
Down past the roll of ancient thunder
Down past the delicate bones of birds wings
Those that never took the flight of morning
Down past the fossil ferns and antlers
A pack of ghost wolves are going to bring you under
Down past the stomach's filled with berries
Swallowed down into the gut of centuries

(PLAY C-PART)
Where we'll petrify
Strong willed, feeble, amber eyed
There we'll petrify
Strong lunged, weary, amber eyed
Strong winged, teary, amber eyed
Amber eyed

(PLAY VERSE)
Buried in arms
Buried in arms
Buried in arms
Can't tell if it's your elbows or twine
All wrapped 'round my waist
A tangled mess divine
Buried in arms
Buried in arms
Buried in arms
Can't tell whose triggers are whose
So we'll pull every one
Firing diamonds at boots

(PLAY CHORUS)
The crash of molars it sifts us downward
Down past the roll of ancient thunder
Down past the delicate bones of bird's wings
Those that never took the flight of morning
Down past the fossil ferns and antlers
A pack of ghost wolves are going to bring you under
Down past the stomachs filled with berries
Swallowed down into the gut of centuries

(PLAY C-PART)
Where we'll petrify
Strong willed, feeble, amber eyed
There we'll petrify
Strong lunged, weary, amber eyed
Strong winged, teary, amber eyed
Amber eyed

(PLAY VERSE)
Buried in arms
Buried in teeth
Buried in teeth
Buried in arms
Buried in teeth
Can't tell if those are black holes I spy
Staring down at us
Sucking starlight through our eyes

(PLAY INTRO)
Buried in arms
Buried in teeth
Buried in teeth
Buried in arms
Buried in arms
Buried in teeth
Buried in teeth
Buried in arms
Buried in teeth
Can't tell if we'll being eaten alive
Tap to rate this tab
# A B C D E F G H I J K L M N O P Q R S T U V W X Y Z