Song name
# A B C D E F G H I J K L M N O P Q R S T U V W X Y Z

Misc Unsigned Bands - Hayden Mchugh - Raindrops tab

I've got raindrops...
|------------------------------------------------------------------|
|------------------------------------------------------------------|
|----0---0---0---0---0---0---0---0---0---0---0---0---0---0---0---0-|
|------------------------------------------------------------------|
|------------------------------------------------------------------|
|--7---7---7---7---7---7---7---7---8---8---8---8---8---8---8---8---|

|------------------------------------------------------------------|
|------------------------------------------------------------------|
|----0---0---0---0---0---0---0---0---0---0---0---0---0---0---0---0-|
|------------------------------------------------------------------|
|------------------------------------------------------------------|
|--7---7---7---7---7---7---7---7---8---8---8---8---8---8---8---8---|

|------------------------------------------------------------------|
|------------------------------------------------------------------|
|----0---0---0---0---0---0---0---0---0---0---0---0---0---0---0---0-|
|------------------------------------------------------------------|
|------------------------------------------------------------------|
|--7---7---7---7---7---7---7---7---8---8---8---8---8---8---8---8---|

|------------------------------------------------------------------|
|------------------------------------------------------------------|
|----0---0---0---0---0---0---0---0---0---0---0---0---0---0---0---0-|
|------------------------------------------------------------------|
|------------------------------------------------------------------|
|--7---7---7---7---7---7---7---7---8---8---8---8---8---8---8---8---|

|------------------------------------------------------------------|
|------------------------------------------------------------------|
|----0---0---0---0---0---0---0---0---0---0---0---0---0---0---0---0-|
|------------------------------------------------------------------|
|------------------------------------------------------------------|
|--7---7---7---7---7---7---7---7---8---8---8---8---8---8---8---8---|

In the rain...
|----------------------------------------------------------------------|
|----------------------------------------------------------------------|
|----0---0---0---0---0---0---0---0----0----0----0----0---0---0---0---0-|
|----------------------------------------------------------------------|
|----------------------------------------------------------------------|
|--7---7---7---7---8---8---8---8---10---10---10---10---8---8---8---8---|

|----------------------------------------------------------------------|
|----------------------------------------------------------------------|
|----0---0---0---0---0---0---0---0----0----0----0----0---0---0---0---0-|
|----------------------------------------------------------------------|
|----------------------------------------------------------------------|
|--7---7---7---7---8---8---8---8---10---10---10---10---8---8---8---8---|

|----------------------------------------------------------------------|
|----------------------------------------------------------------------|
|----0---0---0---0---0---0---0---0----0----0----0----0---0---0---0---0-|
|----------------------------------------------------------------------|
|----------------------------------------------------------------------|
|--7---7---7---7---8---8---8---8---10---10---10---10---8---8---8---8---|

|----------------------------------------------------------------------|
|----------------------------------------------------------------------|
|----0---0---0---0---0---0---0---0----0----0----0----0---0---0---0---0-|
|----------------------------------------------------------------------|
|----------------------------------------------------------------------|
|--7---7---7---7---8---8---8---8---10---10---10---10---8---8---8---8---|

|----------------------------------------------------------------------|
|----------------------------------------------------------------------|
|----0---0---0---0---0---0---0---0----0----0----0----0---0---0---0---0-|
|----------------------------------------------------------------------|
|----------------------------------------------------------------------|
|--7---7---7---7---8---8---8---8---10---10---10---10---8---8---8---8---|

Maybe someday...
|------------------------------------------------------------------|
|------------------------------------------------------------------|
|----0---0---0---0---0---0---0---0---0---0---0---0---0---0---0---0-|
|------------------------------------------------------------------|
|------------------------------------------------------------------|
|--3---3---3---3---5---5---5---5---7---7---7---7---8---8---8---8---|

|------------------------------------------------------------------|
|------------------------------------------------------------------|
|----0---0---0---0---0---0---0---0---0---0---0---0---0---0---0---0-|
|------------------------------------------------------------------|
|------------------------------------------------------------------|
|--3---3---3---3---5---5---5---5---7---7---7---7---8---8---8---8---|

|------------------------------------------------------------------|
|------------------------------------------------------------------|
|----0---0---0---0---0---0---0---0---0---0---0---0---0---0---0---0-|
|------------------------------------------------------------------|
|------------------------------------------------------------------|
|--7---7---7---7---7---7---7---7---8---8---8---8---8---8---8---8---|

Weary hearts may...
|------------------------------------------------------------------|
|------------------------------------------------------------------|
|----0---0---0---0---0---0---0---0---0---0---0---0---0---0---0---0-|
|------------------------------------------------------------------|
|------------------------------------------------------------------|
|--7---7---7---7---7---7---7---7---8---8---8---8---8---8---8---8---|

|------------------------------------------------------------------|
|------------------------------------------------------------------|
|----0---0---0---0---0---0---0---0---0---0---0---0---0---0---0---0-|
|------------------------------------------------------------------|
|------------------------------------------------------------------|
|--7---7---7---7---7---7---7---7---8---8---8---8---8---8---8---8---|

|------------------------------------------------------------------|
|------------------------------------------------------------------|
|----0---0---0---0---0---0---0---0---0---0---0---0---0---0---0---0-|
|------------------------------------------------------------------|
|------------------------------------------------------------------|
|--7---7---7---7---7---7---7---7---8---8---8---8---8---8---8---8---|

|------------------------------------------------------------------|
|------------------------------------------------------------------|
|----0---0---0---0---0---0---0---0---0---0---0---0---0---0---0---0-|
|------------------------------------------------------------------|
|------------------------------------------------------------------|
|--7---7---7---7---7---7---7---7---8---8---8---8---8---8---8---8---|

|------------------------------------------------------------------|
|------------------------------------------------------------------|
|----0---0---0---0---0---0---0---0---0---0---0---0---0---0---0---0-|
|------------------------------------------------------------------|
|------------------------------------------------------------------|
|--7---7---7---7---7---7---7---7---8---8---8---8---8---8---8---8---|

In the rain...
|----------------------------------------------------------------------|
|----------------------------------------------------------------------|
|----0---0---0---0---0---0---0---0----0----0----0----0---0---0---0---0-|
|----------------------------------------------------------------------|
|----------------------------------------------------------------------|
|--7---7---7---7---8---8---8---8---10---10---10---10---8---8---8---8---|

|----------------------------------------------------------------------|
|----------------------------------------------------------------------|
|----0---0---0---0---0---0---0---0----0----0----0----0---0---0---0---0-|
|----------------------------------------------------------------------|
|----------------------------------------------------------------------|
|--7---7---7---7---8---8---8---8---10---10---10---10---8---8---8---8---|

|----------------------------------------------------------------------|
|----------------------------------------------------------------------|
|----0---0---0---0---0---0---0---0----0----0----0----0---0---0---0---0-|
|----------------------------------------------------------------------|
|----------------------------------------------------------------------|
|--7---7---7---7---8---8---8---8---10---10---10---10---8---8---8---8---|

|----------------------------------------------------------------------|
|----------------------------------------------------------------------|
|----0---0---0---0---0---0---0---0----0----0----0----0---0---0---0---0-|
|----------------------------------------------------------------------|
|----------------------------------------------------------------------|
|--7---7---7---7---8---8---8---8---10---10---10---10---8---8---8---8---|

|----------------------------------------------------------------------|
|----------------------------------------------------------------------|
|----0---0---0---0---0---0---0---0----0----0----0----0---0---0---0---0-|
|----------------------------------------------------------------------|
|----------------------------------------------------------------------|
|--7---7---7---7---8---8---8---8---10---10---10---10---8---8---8---8---|

Maybe someday...
|------------------------------------------------------------------|
|------------------------------------------------------------------|
|----0---0---0---0---0---0---0---0---0---0---0---0---0---0---0---0-|
|------------------------------------------------------------------|
|------------------------------------------------------------------|
|--3---3---3---3---5---5---5---5---7---7---7---7---8---8---8---8---|

|------------------------------------------------------------------|
|------------------------------------------------------------------|
|----0---0---0---0---0---0---0---0---0---0---0---0---0---0---0---0-|
|------------------------------------------------------------------|
|------------------------------------------------------------------|
|--3---3---3---3---5---5---5---5---7---7---7---7---8---8---8---8---|

|------------------------------------------------------------------|
|------------------------------------------------------------------|
|----0---0---0---0---0---0---0---0---0---0---0---0---0---0---0---0-|
|------------------------------------------------------------------|
|------------------------------------------------------------------|
|--3---3---3---3---5---5---5---5---7---7---7---7---8---8---8---8---|

Lovelier and lovelier...
|------------------------------------------------------------------|
|------------------------------------------------------------------|
|----0---0---0---0---0---0---0---0---0---0---0---0---0---0---0---0-|
|------------------------------------------------------------------|
|------------------------------------------------------------------|
|--3---3---3---3---5---5---5---5---7---7---7---7---8---8---8---8---|

|------------------------------------------------------------------|
|------------------------------------------------------------------|
|----0---0---0---0---0---0---0---0---0---0---0---0---0---0---0---0-|
|------------------------------------------------------------------|
|------------------------------------------------------------------|
|--3---3---3---3---5---5---5---5---7---7---7---7---8---8---8---8---|

|------------------------------------------------------------------|
|------------------------------------------------------------------|
|----0---0---0---0---0---0---0---0---0---0---0---0---0---0---0---0-|
|------------------------------------------------------------------|
|------------------------------------------------------------------|
|--3---3---3---3---5---5---5---5---7---7---7---7---8---8---8---8---|

|------------------------------------------------------------------|
|------------------------------------------------------------------|
|----0---0---0---0---0---0---0---0---0---0---0---0---0---0---0---0-|
|------------------------------------------------------------------|
|------------------------------------------------------------------|
|--3---3---3---3---5---5---5---5---7---7---7---7---8---8---8---8---|

In the rain...
|----------------------------------------------------------------------|
|----------------------------------------------------------------------|
|----0---0---0---0---0---0---0---0----0----0----0----0---0---0---0---0-|
|----------------------------------------------------------------------|
|----------------------------------------------------------------------|
|--7---7---7---7---8---8---8---8---10---10---10---10---8---8---8---8---|

|----------------------------------------------------------------------|
|----------------------------------------------------------------------|
|----0---0---0---0---0---0---0---0----0----0----0----0---0---0---0---0-|
|----------------------------------------------------------------------|
|----------------------------------------------------------------------|
|--7---7---7---7---8---8---8---8---10---10---10---10---8---8---8---8---|

|----------------------------------------------------------------------|
|----------------------------------------------------------------------|
|----0---0---0---0---0---0---0---0----0----0----0----0---0---0---0---0-|
|----------------------------------------------------------------------|
|----------------------------------------------------------------------|
|--7---7---7---7---8---8---8---8---10---10---10---10---8---8---8---8---|

|----------------------------------------------------------------------|
|----------------------------------------------------------------------|
|----0---0---0---0---0---0---0---0----0----0----0----0---0---0---0---0-|
|----------------------------------------------------------------------|
|----------------------------------------------------------------------|
|--7---7---7---7---8---8---8---8---10---10---10---10---8---8---8---8---|

|----------------------------------------------------------------------|
|----------------------------------------------------------------------|
|----0---0---0---0---0---0---0---0----0----0----0----0---0---0---0---0-|
|----------------------------------------------------------------------|
|----------------------------------------------------------------------|
|--7---7---7---7---8---8---8---8---10---10---10---10---8---8---8---8---|

Maybe someday...
|------------------------------------------------------------------|
|------------------------------------------------------------------|
|----0---0---0---0---0---0---0---0---0---0---0---0---0---0---0---0-|
|------------------------------------------------------------------|
|------------------------------------------------------------------|
|--3---3---3---3---5---5---5---5---7---7---7---7---8---8---8---8---|

|------------------------------------------------------------------|
|------------------------------------------------------------------|
|----0---0---0---0---0---0---0---0---0---0---0---0---0---0---0---0-|
|------------------------------------------------------------------|
|------------------------------------------------------------------|
|--3---3---3---3---5---5---5---5---7---7---7---7---8---8---8---8---|
Tap to rate this tab
 
# A B C D E F G H I J K L M N O P Q R S T U V W X Y Z