Song name
# A B C D E F G H I J K L M N O P Q R S T U V W X Y Z

Misc Unsigned Bands - Paradise Hotel - Deltager tab

Hvert år har Paradise hotel den samme intro sang med deltagerne. 
Til jer andre der også kunne tænke jer at spille den, læs med!
Jeg har fundet tonerne med ørene, så jeg kan ikke garantere for noget.
Rettelser modtages gerne!

p= pause

Intro:

E|-------------------------------------------------------|
A|-------------------------------------------------------|
D|-------------------------------------------------------|
G|---------------------------14--------------------------| 
B|-----------19--17--15--14------------------------------|
E|---17--15----------------------------------------------|

Main:
E|-------------------------------------------------------|
A|-------------------------------------------------------|
D|-------------------------------------------------------|
G|-------------------------------------------------------| 
B|-----------19--17--p--15--17--15--15--15--17--19--17---|
E|---17--15----------------------------------------------|



E|-------------------------------------------------------|
A|-------------------------------------------------------|
D|-------------------------------------------------------|
G|---------------------------------p--16--14-------------| 
B|---------------17--p--19--17--15-----------------------|
E|---17--15--19------------------------------------------|


E|-------------------------------------------------------|
A|-------------------------------------------------------|
D|-------------------------------------------------------|
G|----------------------------------14-------------------| 
B|-------17--15--17--15--14--p--14-----------------------|
E|---14--------------------------------------------------|
Tap to rate this tab
 
# A B C D E F G H I J K L M N O P Q R S T U V W X Y Z