Song name
# A B C D E F G H I J K L M N O P Q R S T U V W X Y Z

Misc Unsigned Bands - Raat Vaari - Cod Ft Gxsoul tab

Tuning: Standard eBGDAE
The chords for this song are:

C G Am Em

 C-032010
 G-320033
Am-002210
Em-022000


("But for intro of Am the 'e' string has been also used in third fret")

The intro goes this way:

              C
e----------------0----------0----------|
B----------1--------1-----1-----1----1-|
G-------0-----0--------0----------0----|
D--------------------------------------|
A----3---------------------------------|
E--------------------------------------|

              G
e----------------3----------3----------|
B----------3--------3-----3-----3----3-|
G-------0-----0--------0----------0----|
D--------------------------------------|
A--------------------------------------|
E----3---------------------------------|


              Am
e----------------3----------3----------|
B----------0\1------1-----1-----1----1-|
G-------2--------------2----------2----|
D--------------------------------------|
A----0---------------------------------|
E--------------------------------------|


              Em
e----------------0----------0----------|
B----------0--------0-----0----0----0--|
G-------0-----0--------0----------0----|
D--------------------------------------|
A----2---------------------------------|
E--------------------------------------|

'\' - Hammer
Tap to rate this tab
 
# A B C D E F G H I J K L M N O P Q R S T U V W X Y Z