Song name
# A B C D E F G H I J K L M N O P Q R S T U V W X Y Z

Misc Unsigned Bands - Matt Stillwell - Shine chords

Highlighted       Show chord diagrams
Matt Stillwell - Shine
Capo 1

Riff 1 (Intro / Post chorus / Outro)
E ------------------------------------|
B ------------------------------------|
G --0h2-2-2-0h2-2-2-0h2-2-2-0---------|
D --0---0-0-0---0-0-0---0-0---2-0-----|
A --------------------------------0---|
E ------------------------------------|


E ------------------------------------|
B ------------------------------------|
G --0h2-2-2-0h2-2-2-0h2-2-2-0---0h2---|
D --0---0-0-0---0-0-0---0-0---2-------|
A ------------------------------------|
E ------------------------------------|

VERSE 1
D                                    Dadd4
We got beer iced down in the cooler
D                            Dadd4
Truck radio crankin Hank Jr
D                        Dadd4
Everbodys gettin looser
  Bm7
Son, look what ol Burleys got
  Bm7
Boys we're about to kick her up a notch

  N.C.
Well

CHORUS
D
Shine
G               Cadd9
Straight from a mason jar
D
Shine
G            Cadd9
Lets let the party start
D
Shine
G                       Cadd9
We do it right in these parts
G                     G*
Everybody have a good time
       G                        G*
Take a sip and pass it down the line
      (riff 1)
Shine

VERSE 2
D                                  Dadd4
This old hay field just came alive
D                                 Dadd4
Everybodys dancin by the fireside
D                            Dadd4
Were gonna be here all night
Bm7
I think Ive had a little too much
Bm7
But its hard to have just enough

When you got

CHORUS

D
Shine
G               Cadd9
Straight from a mason jar
D
Shine
G            Cadd9
Lets let the party start
D
Shine
G                       Cadd9
We do it right in these parts
G                     G*
Everybody have a good time
       G                        G*
Take a sip and pass it down the line
      (riff 1)
Shine

BRIDGE
Bm7
That carolina sun is risin and were still standin
Bm7
Might as well kick off the mornin with some

repeat chorus x2
exit with riff 1

Chords Used:
D        xx0232
Dadd4    xx0032
Bm7      x24232
G        320033
Cadd9    x32030
G*       320003
Tap to rate this tab
# A B C D E F G H I J K L M N O P Q R S T U V W X Y Z