Song name
# A B C D E F G H I J K L M N O P Q R S T U V W X Y Z

Misc Unsigned Bands - Assume The Position - Auld Lang Syne tab

Submitted by an A.T.P guitarist

This is played in standard tuning

-|---------5-------5-----5-8-10--10-8-5-5---------5-------------
-|---6-6-6---8-6-8---6-6------------------6-8-6-8---6-------6---
-|-5--------------------------------------------------7-7-5-----
-|--------------------------------------------------------------
-|--------------------------------------------------------------
-|--------------------------------------------------------------

-|-10-8-5-5---------10-8-5-5-8-10--12-8-5-5---------5-----------
-|----------6-8-6-8-------------------------6-8-6-8---6-------6-
-|------------------------------------------------------7-7-5---
-|--------------------------------------------------------------
-|--------------------------------------------------------------
-|--------------------------------------------------------------
Tap to rate this tab
 
# A B C D E F G H I J K L M N O P Q R S T U V W X Y Z