Song name
# A B C D E F G H I J K L M N O P Q R S T U V W X Y Z

Misc Unsigned Bands - The Sun Explodes - Honour Bound tab

--------------------------------
The Sun Explodes - Honour Bound
--------------------------------
www.thesunexplodes.com
www.facebook.com/thesunexplodes

Tabbed By: Al Harris
E-Mail: al@thesunexplodes.com
Tempo:137bpm

Tuning Half step down, Drop D. (Db,Ab,Dg,Gb,Bb,Eb)

Music Video for song: http://www.youtube.com/watch?v=HE7AeaDhUuo


Intro - Lead
-----------------------------------------------------------------|
-----------------------------------------------------------------|
-----------------------------------------------------------------|
-8p0-7p0-5h7-0-8p0-7p0-5h7p5p0h7h8p0-7p0-5p0-7p0-8p0-7p0-5p0-7p0-|
-----------------------------------------------------------------|
-----------------------------------------------------------------|
X4

--------------------------------------------|
--------------------------------------------|
--------------------------------------------|
-8p0-7p0-5p0-0-8p0-7p0-0-5p0----------------|
--------------------------------------------|
--------------------------------------------|

-----------------------------------------------------|
-----------------------------------------------------|
-----------------------------------------------------|
-12p0-10p0-8p0-0-12p0-10p0-0-8p0-00-8--8-8s10-8-12---|
-------------------------------------7------------10-|
-----------------------------------------------------|

Intro - Rythm
------------------------------------------------------------|
------------------------------------------------------------|
------------------------------------------------------------|
-5-5--5---0--3-3---3-5-5------------------------------------|
-5-5--5---0--3-3---3-5-5------------------------------------|
-5-5--5---0--3-3---3-5-5----8p0-7p0-5p0-7p0-8p0-7p0-5p0-7p0-|
X2


-----------------------------------------------------|
-----------------------------------------------------|
-----------------------------------------------------|
-------------------------8p0-7p0-5p0-0-8p0-7p0-0-5p0-|
-----------------------------------------------------|
-----------------------------------------------------|


--------------------------------------------------|
--------------------------------------------------|
--------------------------------------------------|
-8p0-7p0-5p0-0-8p0-7p0-0-5p0-00-3---3-5-5s7-5-----|
----------------------------------5-----------8-7-|
--------------------------------------------------|





Riff - Both guitars
--------------------------------------------|
--------------------------------------------|
--------------------------------------------|
-0-8-8--8s7-0-0--00--0--00------------------|
-0-5-5--5s3-0-0--00--0--00------------------|
-0-5-5--5s3-0-0--00--0--00------------------|

End of riff section

------------------------|
------------------------|
------------------------|
-0-8-8--8s7-0-0-1-2-3-4-|
-0-5-5--5s3-0-0-1-2-3-4-|
-0-5-5--5s3-0-0-1-2-3-4-|






Verse - Rythm
------------------------------------------------------------|
------------------------------------------------------------|
------------------------------------------------------------|
-0-8-8-0-8--8-0--8-8-0-8--8-8-5-8-8-8-8--8-3--3--0-3-5-10-8-|
-0-5-5-0-5--5-0--5-5-0-5--5-5-5-8-8-8-8--8-3--3--0-3-5-10-8-|
-0-5-5-0-5--5-0--5-5-0-5--5-5-5-8-8-8-8--8-3--3--0-3-5-10-8-|

----------------------------------------------------------|
----------------------------------------------------------|
----------------------------------------------------------|
-0-8-8-0-8--8-0--8-8-0-8--8-8-5-8-8-8-8--8-3--3--0-3-4-5--|
-0-5-5-0-5--5-0--5-5-0-5--5-5-5-8-8-8-8--8-3--3--0-3-4-5--|
-0-5-5-0-5--5-0--5-5-0-5--5-5-5-8-8-8-8--8-3--3--0-3-4-5--|

Intro to Verse - Lead
-----------------------------------------------------------|
-----------------------------------------------------------|
-----------------------------------------------------------|
-0-3-5-10-8---7-7-8-5----5-7---7-7-8-5--5--5-3--3-0-3-4-5--|
-----------------------------------------------------------|
-----------------------------------------------------------|

Verse - Lead
---------------------------------------------------------------------|
-10-10-10s11s8--8-10-10-10s11s8-8-8--13-13-13s15s11--11-10-10-8-8h10-|
---------------------------------------------------------------------|
-7--7--7s-8s-5--5-7--7--7s-8s-5-5-5--10-10-10s12s8--8--8--8--8-8-----|
---------------------------------------------------------------------|
---------------------------------------------------------------------|

-----------------------------------------------------------------------------|
-10-10-10s11s8--8-10-10-10s11s8-8-8--13-13-13s15s11-11s10s8s10-10s11s10-10s8-|
-----------------------------------------------------------------------------|
-7--7--7s-8s-5--5-7--7--7s-8s-5-5-5--10-10-10s12s8--8s-7s-5s7--7s-8s-7--7s5--|
-----------------------------------------------------------------------------|
-----------------------------------------------------------------------------|




Prechorus
--------------------------------------------|
--------------------------------------------|
--------------------------------------------|
-5------------------------------------------|
-5------------------------------------------|
-5------------------------------------------|



Chorus - Both guitars
--------------------------------------------------------|
--------6-6-6---------6-6-6-----------------------------|
--------7-7-7---------7-7-7---------7-7-7---------7-7-7-|
-55-5-5-5-5-5--55-5-5-5-5-5--88-8-8-8-8-8--88-8-8-8-8-8-|
-55-5-5--------55-5-5--------88-8-8--------88-8-8-------|
-55-5-5--------55-5-5--------88-8-8--------88-8-8-------|

--------------------------------------------|
--------------------------------------------|
--------------------------------------------|
-88-8-8-10-77-7-7-8-33-3-3-0-3h5-5----------|
-88-8-8-10-77-7-7-8-33-3-3-0-3h5-5----------|
-88-8-8-10-77-7-7-8-33-3-3-0-3h5-5----------|



Break - Lead
--------------------------------------------|
--------------------------------------------|
--------------------------------------------|
-8p0-7p0-5p0-0-3p0-5p0-0--------------------|
--------------------------------------------|
--------------------------------------------|

--------------------------------------------|
--------------------------------------------|
--------------------------------------------|
-8p0-7p0-5p0-0-10p0-8p0-0-------------------|
--------------------------------------------|
--------------------------------------------|

--------------------------------------------|
--------------------------------------------|
--------------------------------------------|
-2------------------------------------------|
-4------------------------------------------|
--------------------------------------------|



Middle 8 Breakdown - Both guitars
--------------------------------------------|
-------------------------------(end)-s5-----|
---------------------------------------6----|
--------2---2--2---2-----2------------------|
-0-0-0--4-0-4--4-0-4--0--4------------------|
-0-0-0----0------0----0---------------------|

Rythm
--------------------------------------------|
--------------------------------------------|
--------------------------------------------|
--------------------------------------------|
--------------------------------------------|
-77777777etc--------555555555etc------------|

Lead
---------------------------------------------------------------------|
---------------------------------------------------------------------|
---------------------------------------------------------------------|
---------------------7h10p7h10(14)p10p7h10h(12)p10p7-----------------|
------7h12p7h10p7h10---------------------------------h10(12)p10p7h10-|
-7h10----------------------------------------------------------------|


       -------------|
       -------------|
       -------------|
       -(15)p10p7h10
(cont) -------------


----------------------------------------------------------------------|
----------------------------------------------------------------------|
----------------------------------------------------------------------|
------------------5h8p5h8(12)p8p5h8h(14)p8p5h8h(15)p8p5h8h(17)p8p5h8h-|
-----5h10p5h8p5h8-----------------------------------------------------|
-5h8------------------------------------------------------------------|
X2


---------------------------------------------|
---------------------------------------------|
---------------------------------------------|
-(19)p0h5h7-(19)p0h5h7-(19)p0h5h7-(19)p0h5h7-|
---------------------------------------------|
---------------------------------------------|


Breakdown
--------------------------------------------|
--------------------------------------------|
--------------------------------------------|
-000-0--0-000-000---------------------------|
-000-0--0-000-000---------------------------|
-000-0--0-000-000---------------------------|


--------------------------------------------|
--------------------------------------------|
--------------------------------------------|
--3--------5--------------------------------|
--3--------5--------------------------------|
--3--------5--------------------------------|






************************************

| /   slide up
| \   slide down
| h   hammer-on
| p   pull-off
| ~   vibrato
| +   harmonic
| x   Mute note
| b   Bend
| pb  Pre-bend
| br  Bend release
| pbr Pre-bend release
| brb Bend release bend
| (x) Tapped note with right hand

************************************
Tap to rate this tab
# A B C D E F G H I J K L M N O P Q R S T U V W X Y Z