Song name
# A B C D E F G H I J K L M N O P Q R S T U V W X Y Z

Misc Unsigned Bands - Futile Resistance - Ham Sandwich tab

-------------------------------------------------------------------------------
			     HAM SANDWICH-FUTILE RESISTANCE
-------------------------------------------------------------------------------

Tabbed by:REG RUMBEL
Email:justreg31@hotmai.com

futile resistance is a up coming band from dungog australia.There is much
talent amongst the artist in this band,and they are juast waiting for their
big break to get into the music world.please accepyt this tab.
Tuning:standard

INTRO
e|---------------------------------------------------------------------------|
B|---------------------------------------------------------------------------|
G|---------------------------------------------------------------------------|
D|---------------------------------------------------------------------------|
A|---------------------------------------------------------------------------|
E|-2-3-2/5/9-7-x--x--2-3-2/5/9-7-x--x--2-3-2/5/9-7-x--x--2-3-2/5/9-7-4-5-4---|

fisrt verse
e|---------------------------------------------------------------------------|
B|---------------------------------------------------------------------------|
G|---------------------------------------------------------------------------|
D|---------------------------------------------------------------------------|
A|-----------------------------------------------12-10-8-10-8-7-10-----------!
E|-4-5-4-7-9-10-9-8--0h7-8-7-9-11--0h7-8-7-9-11--11- 9-7- 9-8-7- 9-----------|

chorus
e|---------------------------------------------------------------------------|
B|---------------------------------------------------------------------------|
G|---------------------------------------------------------------------------|
D|---------------------------------------------------------------------------|
A|---------------------------------------------------------------------------|
E|-2-3-2-5-9-7--x--x---------------------------------------------------------|

solo
e|---------------------------------------------------------------------------|
B|-8-8---9-8-7-7-7-8-7--7-7-7-----7-6----------------------------------------|
G|-----6------5-5------5-6-5-666-5-------------------------------------------|
D|---------------------------------------------------------------------------|
A|---------------------------------------------------------------------------|
E|---------------------------------------------------------------------------|

outro
e|---------------------------------------------------------------------------|
B|---9----------------------------9------------------------------------------|
G|--7-7/8/7-6--7--4 times then---7-7-7-8-7-67-8-7-8-7-8-7--------------------|
D|-0----------------------------0--------------------------------------------|
A|---------------------------------------------------------------------------|
E|---------------------------------------------------------------------------|



| /  slide up
| \  slide down
| h  hammer-on
| p  pull-off
| ~  vibrato
| +  harmonic
| x  Mute note

===============================================================================
Tap to rate this tab
# A B C D E F G H I J K L M N O P Q R S T U V W X Y Z