Song name
# A B C D E F G H I J K L M N O P Q R S T U V W X Y Z

Misc Unsigned Bands - Iamneeta - Tuhan Tolong Aku tab

IamNeeta - Tuhan tolong Aku


Power Chords intro & chorus is G#,D#(repeat the same chords)
Reff is:F,G#,D#,Bb,F,G#,C,Bb

For Acoustic,use capo fret 3 for intro chords is F,C
Reff is:Dm,F,C,G,Dm,F,Am,G

intro
 |----------------------------------------------------------------------------|
 |-----7--8--7--5--7------------10--7-------7--8--7--5--------------10--7-----|
 |--------------------4-4-4--7--------------------------7--4-4-4--7-----------|
 |----------------------------------------------------------------------------|
 |----------------------------------------------------------------------------|
 |----------------------------------------------------------------------------|

 |-----------------------------------------|
 |--7--8--7--5---------------10--8-7-8-7---|
 |--------------7--4-4-4--7----------------|
 |-----------------------------------------|
 |-----------------------------------------|
 |-----------------------------------------|


G#                      D# 
Hancur segala kisah hidupku
Menjadi,mimpi mimpi yang tak indah
walau....hati  kecil ku menjerit
tak mungkin
mimpi menjadi milik ku..

CO~
Tuhan tolong aku
carikan penyeri
untuk dalam hidup ku
ku perlu dia
ingin jadi milik ku
menjaga hatinya..ow ow ow
 
bukan mahu aku
yang telah terjadi
luar kuasa tangan ku
bawa lah aku hingga satu persatu
mencari hatinya..
 
Hilang segala ruang hidupku
Menjadi warna warna yang terpendam
Walau..hati kecil ku menjerit!
Tak mungkin..mimpi menjadi milik ku..
(Back to chorus)
 
 
Reff:F,G#,D#,Bb,F,G#,C,Bb

Andainya aku bisa terbang
melebarkan sayap kesana
dan terbang hingga ke jauh
merintasi garis dunia....oow... 

 Solo 
 |----------------------------------------------------------------------------|
 |-----7--8--7--5--7------------10--7-------7--8--7--5--7------------10--7----|
 |--------------------4-4-4--7-----------------------------4-4-4--7-----------|
 |----------------------------------------------------------------------------|
 |----------------------------------------------------------------------------|
 |----------------------------------------------------------------------------|

 |--------------------7-7--9-9--10-10--12-12--14------------------------------|
 |-----7--8--7--5--7------------------------------10--8-7-8-7-----------------|
 |----------------------------------------------------------------------------|
 |----------------------------------------------------------------------------|
 |----------------------------------------------------------------------------|
 |----------------------------------------------------------------------------|


repeat chorus  1X  
 
Tuhan tolong aku....4X end 


*ade ape2 prob,email kt fitri.azrin92@gmail.com
Tap to rate this tab
# A B C D E F G H I J K L M N O P Q R S T U V W X Y Z