Song name
# A B C D E F G H I J K L M N O P Q R S T U V W X Y Z

Misc Unsigned Bands - Leonard Lofstrand - Ett Hjrtligt Tack Tack Som Fan tab

-------------------------------------------------------------------------------
                            Ett hjärtligt tack (Tack som fan) - Leonard Löfstrand
-------------------------------------------------------------------------------

E-mail: leonard_lofstrand@hotmail.com

Tuning: Half-step down

Intro/Verse:

D#|-0-----0-----0-----0-----|
A#|-0-----0-----0-----0-----|
F#|-9-----8-----9-----8-----|
C#|-9-----9-----9-----9-----|
G#|-7-----6-----x-----9-----|
D#|-------------9-----7-----|


Pre chorus:

D#|-0-----0-----0-----0-----|
A#|-0-----0-----0-----0-----|
F#|-9-----8-----9-----8-----|
C#|-9-----9-----9-----9-----|
G#|-7-----6-----x-----9-----|
D#|-------------9-----7-----|


Ref:

D#|-0-----0-----0-----0-----0----|
A#|-0-----0-----0-----0-----0----|
F#|-1-----4-----2-----9-----8----|
C#|-2-----4-----2-----9-----9----|
G#|-2-----x-----x-----x-----9----|
D#|-0-----4-----2-----9-----7----|



Ett hjärtligt tack (Tack som fan)

Verse:

Jag har famlat genom tid, låtit känslorna förbli. jag har klarat mig i livet utan dig.
men det är nånting med dig, något vaknar inom mig. någonting som aldrig varit där förut.

Och jag hoppas att du vet och jag hoppas att du kan. att du kan känna det jag gör.
Tiden räcker inte till inget blir just som vi vill.


Ref:

Jag hoppas att du ser mig, att du ser vem jag är.
Och jag hoppas att du vet, att du vet att du berör.
ja jag hoppas att du ser den värld som skapats genom dig.
Och jag hoppas att du hör mig,
att du, hör mig nu

Verse 2:

Du vet jag minns allt som vi gjort, det känns som tiden gått rätt fort, du vet jag
minns just den där
känslan här med dig.

så jag vill tacka för den tid, denna tid som varit vi. jag vill tacka för de stunderna 
med dig

Pre chorus:

Och jag hoppas att du vet och jag hoppas att du kan. att du kan känna det jag gör.
tiden räcker inte till inget blir just som vi vill.

Ref:

Jag hoppas att du ser mig, att du vet vem jag är.
Och jag hoppas att du vet, att du vet att du berör.
ja jag hoppas att du ser den värld som skapats genom dig.
Och jag hoppas att du hör mig,
att du, hör mig nu



Lyrics and music - Leonard Löfstrand
Tap to rate this tab
# A B C D E F G H I J K L M N O P Q R S T U V W X Y Z