Song name
# A B C D E F G H I J K L M N O P Q R S T U V W X Y Z

Misc Unsigned Bands - Dark Noon 25 - What Has Brought Me Here tab

-------------------------------------------------------------------------------
		    What Has Brought Me Here - Dark Noon 25
-------------------------------------------------------------------------------

Tabbed By:dls 
Email: partymonkey05@hotmail.com

Tuning:EADGBE
                                                                               
e|--1--------1------0-----|--0--------0------0--1--|--6--------6-------------|
B|-----3-----3---------3--|-----1-----1------------|--8--------8------6--5-3-|
G|--------2--2------------|--------2--2------------|-----7-----7-------------|
D|------------------------|------------------------|--------8--8-------------|
A|------------------------|------------------------|-------------------------|
E|------------------------|------------------------|-------------------------|

e|--10---------10--------------|--------------------------|
B|--10---------10--------------|--6-----------------6-----|
G|------10--7--10------10------|--7-----7--------7-----7--|
D|-------------12----------10--|--7--------7--------------|
A|-------------------------12--|--------------------------|
E|-----------------------------|--------------------------|

e|----------------------0-----|--3-------------------------|
B|--5---------------5------1--|--3-----3---3----3-------3--|
G|--5-------------5---2-------|--3-------3----3---0--3-----|
D|--7-----7-----7-------------|--5-------------------------|
A|--7--------7----------------|----------------------------|
E|----------------------------|----------------------------|

e|--5---------------5------5--|
B|--5-------------5---5-------|
G|--5-----5-----5-------5--5--|
D|--7--------7----------7-----|
A|----------------------------|
E|----------------------------|
Tap to rate this tab
# A B C D E F G H I J K L M N O P Q R S T U V W X Y Z