Song name
# A B C D E F G H I J K L M N O P Q R S T U V W X Y Z

Misc Unsigned Bands - Change For A Penny - Gravitation tab

Help us improve GuitareTab! Take a short survey!
Change For A Penny
Gravitation Music

Guitar1
----------------------------------------------------------------
----------------------------------------------------------------
----------------------------------------------------------------
--10--10--10--10--10--10--10--10--10--10--10--10--10--10--10--10
-----------------7---7---7---7---8---8---8---8---7---7---7---7--
-8---8---8---8--------------------------------------------------


Guitar2
----------------------------------------------------------------
----------------------------------------------------------------
----------------------------------------------------------------
--10--10--10--10--10--10--10--10--10--10--10--10--10--10--10--10
-----------------7---7---7---7---8---8---8---8---7---7---7---7--
-8---8---8---8--------------------------------------------------

Bass2
--------------------------------------------------------------
-----------------2-2-2-2-2-2-2-5-3-3-3-3-3-3-3-5-2-2-2-2-2-2-2
-3-3-3-3-3-3-3-3----------------------------------------------
--------------------------------------------------------------


guitar3
--------------------------------------------------------------------
--------------------------------------------------------------------
--------------------------------------------------------------------
--10--10--10--10--10--10--10--10--10--10--10--10--10--10--10--10----
-----------------7---7---7---7---8---8---8---8---7---7---7---7------
-8---8---8---8------------------------------------------------------

Bass3
--------------------------------------------------------------------
-----------------2-2-2-2-2-2-2-5-3-3-3-3-3-3-3-5-2-2-2-2-2-2-2------
-3-3-3-3-3-3-3-3----------------------------------------------------
--------------------------------------------------------------------

Guitar3
--------------------------------------------------------------------
--------------------------------------------------------------------
-----------------9---9---9---9---10--10--10--10--9---9---9---9------
-10--10--10--10--9---9---9---9---10--10--10--10--9---9---9---9------
-10--10--10--10--7---7---7---7---8---8---8---8---7---7---7---7------
--8---8---8---8-----------------------------------------------------
Related for Change For A Penny - Gravitation tab