Song name
# A B C D E F G H I J K L M N O P Q R S T U V W X Y Z

Misc Unsigned Bands - Citadel - Solanum tab

-------------------------------------------------------------------------------
                             Solanum - Citadel
-------------------------------------------------------------------------------
Tabbed by: Citadel[Joe]
E-mail:fuhugwagads@gmail.com

Tuning: B F# B E G# Db [drop b]

e|---------------------------------------------------------------------------|
B|---------------------------------------------------------------------------|
G|--------------------434-----------4543-----------434-----------------------|
D|--------------------xxx-----------xxxx-----------xxx-----------32323-------|
A|54658757--4210-4210-212-4210-4210-2321-4210-4210-212-4210-4210-------------|
E|54758757-------------------------------------------------------------------|
            xxxx xxxx     xxxx xxxx      xxxx xxxx     xxxx xxxx

e|---------------------------------------------------------------------------|
B|---------------------------------------------------------------------------|
G|---------------------------------------------------------------------------|
D|--------------------------3--------3----------------------------232-2--------|
A|4210-5210-4210-5210-4210-----4210----4--4210-5210-4210-5210-0134---4-43431013|
E|---------------------------------------------------------------------------|
  xxxx xxxx xxxx xxxx xxxx     xxxx       xxxx xxxx xxxx xxxx

e|---------------------------------------------------------------------------|
B|---------------------------------------------------------------------------|
G|--------------------434-----------4543-----------434-----------------------|
D|--------------------xxx-----------xxxx-----------xxx-----------1-000-------|
A|54658757--4210-4210-212-4210-4210-2321-4210-4210-212-4210-4210-------------|
E|54758757-------------------------------------------------------------------|
            xxxx xxxx     xxxx xxxx      xxxx xxxx     xxxx xxxx   xx

e|---------------------------------------------------------------------------|
B|---------------------------------------------------------------------------|
G|---------------------------------------------------------------------------|
D|--------------------------3--------3----------------------------232-2--------|
A|4210-5210-4210-5210-4210-----4210----4--4210-5210-4210-5210 0134---4-43431013|
E|---------------------------------------------------------------------------|

e|---------------------------------------------------------------------------|
B|---------------------------------------------------------------------------|
G|---------------------------------------------------------------------------|
D|---------------------------------------------------------------------------|
A|1-1-2-1-4-1-2-1---------1-------1-1-2-1-4-1-2-1---------4------------------|
E|1-1-2-1-4-1-2-1-0-1-2-1---2-1-0-1-1-2-1-4-1-2-1-0-1-2-1---2-1-0------------|
    x x x x x x x                   x x x x x x x 

e|---------------------------------------------------------------------------|
B|---------------------------------------------------------------------------|
G|---------------------------------------------------------------------------|
D|---------------------------------------------------------------------------|
A|1-1-2-1-4-1-2-1---------1-------1-1-2-1-4-1-2-1---------4------------------|
E|1-1-2-1-4-1-2-1-0-1-2-1---2-1-0-1-1-2-1-4-1-2-1-0-1-2-1---2-1-0------------|
    x x x x x x x                   x x x x x x x  
WE STAND BESIDE YOU HERE

e|---------------------------------------------------------------------------|
B|---------------------------------------------------------------------------|
G|---------------------------------------------------------------------------|
D|---------------------------------------------------------------------------|
A|2-1-0-1-2-1-2-1-0-1-2-1-2-1-0-1-2-1-2-1-0-1--------------------------------|
E|2-1-0-1-2-1-2-1-0-1-2-1-2-1-0-1-2-1-2-1-0-1--------------------------------|
      X X X X     X X X X     X X X X     X 

e|---------------------------------------------------------------------------|
B|---------------------------------------------------------------------------|
G|---------------------------------------------------------------------------|
D|---------------------------------------------------------------------------|
A|2-1-0-1-2-1-2-1-0-1-2-1-2-1-0-1-2-1-2-1-0-1-2-------------------------------|
E|2-1-0-1-2-1-2-1-0-1-2-1-2-1-0-1-2-1-2-1-0-1-2-------------------------------|
      X X X X     X X X X     X X X X      

e|---------------------------------------------------------------------------|
B|---------------------------------------------------------------------------|
G|---------------------------------------------------------------------------|
D|---------------------------------------------------------------------------|   x2
A|1-1-2-1-4-1-2-1---------1-------1-1-2-1-4-1-2-1---------4------------------|
E|1-1-2-1-4-1-2-1-0-1-2-1---2-1-0-1-1-2-1-4-1-2-1-0-1-2-1---2-1-0------------|
    x x x x x x x                   x x x x x x x 


e|---------------------------------------------------------------------------|
B|---------------------------------------------------------------------------|
G|---------------------------------------------------------------------------|
D|---------------------------------------------------------------------------|
A|2-1-2-1-0000-2-1-2-1-0000-2-1-2-1-2-1-2-1-0000-2-1-------------------------|
E|2-1-2-1-0000-2-1-2-1-0000-2-1-2-1-2-1-2-1-0000-2-1-222-333-222-111---------|
  X X X X XXXX X X X X XXXX X X X X X X X X XXXX X X XXX XXX XXX XXX

e|---------------------------------------------------------------------------|
B|---------------------------------------------------------------------------|
G|---------------------------------------------------------------------------|
D|---------------------------------------------------------------------------|
A|2-1-2-1-0000-2-1-2-1-0000-2-1-2-1-2-1-2-1-0000-2-1-2----3-2-3--------------|
E|2-1-2-1-0000-2-1-2-1-0000-2-1-2-1-2-1-2-1-0000-2-1-1----3-2-2--------------|
  X X X X XXXX X X X X XXXX X X X X X X X X XXXX X X      X X

e|---------------------------------------------------------------------------|
B|---------------------------------------------------------------------------|
G|---------------------------------------------------------------------------|
D|------66------------------------------66-----------------------------------|
A|--8877--887755----55778877554411--8877--887755-----------------------------|
E|00------------0000--------------00------------000000000000-----------------|

e|---------------------------------------------------------------------------|
B|---------------------------------------------------------------------------|
G|---------------------------------------------------------------------------|
D|------66------------------------------66-----------------------------------|
A|--8877--887755----55778877554411--8877--887755-2-111-223-2-1-2-------------|
E|00------------0000--------------00-------------2-111-223-2-1-1-------------|

e|---------------------------------------------------------------------------|
B|---------------------------------------------------------------------------|
G|---------------------------------------------------------------------------|
D|---------------------------------------------------------------------------|
A|2-1-2-1-0000-2-1-2-1-0000-2-1-2-1-2-1-2-1-0000-2-1-3-----------------------|
E|2-1-2-1-0000-2-1-2-1-0000-2-1-2-1-2-1-2-1-0000-2-1---0-3-2-----------------|
  X X X X XXXX X X X X XXXX X X X X X X X X XXXX X X   X   

e|---------------------------------------------------------------------------|
B|---------------------------------------------------------------------------|
G|---------------------------------------------------------------------------|
D|---------------------------------------------------------------------------|
A|2-1-2-1-0000-2-1-2-1-0000-2-1-2-1-2-1-2-1-0000-2-1-3-----------------------|
E|2-1-2-1-0000-2-1-2-1-0000-2-1-2-1-2-1-2-1-0000-2-1---345-0-34--------------|
  X X X X XXXX X X X X XXXX X X X X X X X X XXXX X X       x

e|---------------------------------------------------------------------------|
B|---------------------------------------------------------------------------|
G|---------------------------------------------------------------------------|
D|---------------------------------------------------------------------------|
A|1-1-2-1-4-1-2-1---------1-------1-1-2-1-4-1-2-1---------4------------------|
E|1-1-2-1-4-1-2-1-0-1-2-1---2-1-0-1-1-2-1-4-1-2-1-0-1-2-1---2-1-0------------|
    x x x x x x x                   x x x x x x x 

e|---------------------------------------------------------------------------|
B|---------------------------------------------------------------------------|
G|---------------------------------------------------------------------------|
D|---------------------------------------------------------------------------|
A|2-1-2-1-0000-2-1-2-1-0000-2-1-2-1-2-1-2-1-0000-2-1-3-----------------------|
E|2-1-2-1-0000-2-1-2-1-0000-2-1-2-1-2-1-2-1-0000-2-1---3-0-2-0-1-1-----------|
  X X X X XXXX X X X X XXXX X X X X X X X X XXXX X X     x   x 

e|---------------------------------------------------------------------------|
B|---------------------------------------------------------------------------|
G|---------------------------------------------------------------------------|
D|--------------------33--44--33---------------------------------------------| x5
A|2-1-32101---32101122--22--22--22--2-1-32101-4-3-2-1-2-3-4-3-2-1------------|
E|2-1-------------------------------2-1-------3-2-1-0-1-2-3-2-1-0------------|


************************************

| /   slide up
| \   slide down
| h   hammer-on
| p   pull-off
| ~   vibrato
| +   harmonic
| x   Mute note
| b   Bend
| pb  Pre-bend
| br  Bend release
| pbr Pre-bend release
| brb Bend release bend

************************************
Tap to rate this tab
 
# A B C D E F G H I J K L M N O P Q R S T U V W X Y Z