Song name
# A B C D E F G H I J K L M N O P Q R S T U V W X Y Z

Misc Unsigned Bands - Manic Bloom - Never Back Down tab

Never Back Down - Manic Bloom

e|--------------------------------------------|
B|--------------------------------------------|
G|-------9---------------------9--------------|
D|-11----x---------------11----x--------------|
A|-x-----7--------7------x-----7--------7-----|
E|-9----------7h9---9-7--9----------7h9---9-7-|

e|--------------------------------------------|
B|--------------------------------------------|
G|-------9---------------------9--------------|
D|-7-----x---------------7-----x--------------|
A|-x--5--7--------5------x--5--7--------7-----|
E|-5----------5h7---7-5--5----------5h7---9-7-| 

then repeat the two parts
Tap to rate this tab
# A B C D E F G H I J K L M N O P Q R S T U V W X Y Z