Song name
# A B C D E F G H I J K L M N O P Q R S T U V W X Y Z

Misc Unsigned Bands - Karmatic Armageddon - Put Down Your Guns tab

(PUT DOWN YOU GUNS)
Drop C tuning:
D
A
F
C
G
C (Top String)
key * = Strum constantly
h = Hammer on
p = Pull off
pm = Palm mute

(Lead Guitar) Repeat 4x (Intro)
D---------------------------------------------------------------------------|
A---------------------------------------------------------------------------|
F---------------------------------------------------------------------------|
C-5-7*-5*---3-5*-3*---0-----------------------------------------------------|
G-5------7*-3------5*-0-000000000000----------------------------------------|
C-5---------3---------0-000000000000----------------------------------------|
                       (pm-----------------------------------------------

(Rhythm Guitar) Repeat 4x (Intro)
D---------------------------------------------------------------------------|
A---------------------------------------------------------------------------|
F---------------------------------------------------------------------------|
C-5---------3---------0-----------------------------------------------------|
G-5---------3---------0-000000000000----------------------------------------|
C-5---------3---------0-000000000000----------------------------------------|
                       (pm-------------------------------------------------


(Lead and Rhythm Guitar)
D------------------|
A------------------|
F------------------|
C-0----------------|
G-0----------------|
C-0(let ring)------|


(Lead and Rhythm Guitar)(breakdown)

D-------------------------------|
A-------------------------------|
F-------------------------------|
C-0------------0----------------|
G-00000000000000----------------|
C-00000000000000(Repeat 6x)-----|
  (PM----------)<--(12----------|
Listen to the song for a
better idea of the breakdown :)


(Lead and Rhythm Guitar)(breakdown)
D------------------------|
A------------------------|
F------------------------|
C------------------------|
G-000000000000-000000----|
C-000000000000-111111----|
 (PM---------------------|


Lead and Rhythm Guitar)(breakdown)(Change of pace)
D--------------------------|
A--------------------------|
F--------------------------|
C-0----------0-------------|
G-0-00000000-0-------------|
C-0-00000000-0(Repeat3x)---|
   (PM---------------------|



(Lead and Rhythm Guitar)(breakdown)
D----------------------------------|
A----------------------------------|
F----------------------------------|
C-----------------0----------------|
G-00000000-000000-0----------------|
C-00000000-111111-0(let ring)------|
 (PM-------------------------------|
Tap to rate this tab
 
# A B C D E F G H I J K L M N O P Q R S T U V W X Y Z