Song name
# A B C D E F G H I J K L M N O P Q R S T U V W X Y Z

Misc Unsigned Bands - Bubblegum Octopus - Cat Machine tab

-------------------------------------------------------------------------------
                             CAT MACHINE! - Bubblegum Octopus
-------------------------------------------------------------------------------
Tabbed by: Tyler
E-mail: hill.tyler63@yahoo.com

Tuning: Standard
"We are in the cat machine..."
e|---------------------------------------------------------------------------|
B|---------------------------------------------------------------------------|
G|---------------------------------------------------------------------------|
D|--------------------------------3----------3-------------------------------|
A|-5--5--5--5--3-3-4--5--5--5--5--1--5--5-5--1--5--5--5--5--3-3-4--5---------|
E|-3--3--3--3--1-1-2--3--3--3--3-----3--3-3-----3--3--3--3--1-1-2--3---------|

I can't figure out the really fast instrumental part in the middle of the song. 
I'd just improvise.

After that repeat the first riff and at the end (the "It's really good" part) play this
e|-----------------------------------------------------------------------------|
B|-----------------------------------------------------------------------------|
G|-----------------------------------------------------------------------------|
D|-----------------------------------------------------------------------------|
A|--5--5--5--5-----------------------------------------------------------------|
E|--3--3--3--3-----------------------------------------------------------------|
Tap to rate this tab
 
# A B C D E F G H I J K L M N O P Q R S T U V W X Y Z