Song name
# A B C D E F G H I J K L M N O P Q R S T U V W X Y Z

Misc Unsigned Bands - A Rare Fish - Sitting Here tab

                            *the H means hammer-on
E|-x-x-x-x-x-x/-x-x-x-x-x-x---x-x-x-x-x-x---x-x-x-x-x-x-|
B|-1-1-1-1-1-1/-3-3-3-3-3-3-H-5-5-5-5-5-5---3-3-3-3-3-3-|
G|-2-2-2-2-2-2/-4-4-4-4-4-4---4-4-4-4-4-4---4-4-4-4-4-4-|end of 1st riff
D|-3-3-3-3-3-3/-5-5-5-5-5-5---5-5-5-5-5-5---5-5-5-5-5-5-| (continued)
A|-0-0-0-0-0-0/-0-0-0-0-0-0---0-0-0-0-0-0---0-0-0-0-0-0-|
E|-x-x-x-x-x-x/-x-x-x-x-x-x---x-x-x-x-x-x---x-x-x-x-x-x-|

               
E|-x-x-x-x-x-x---x-x-x-x-x-x/x-x-x-x-x-x-|-x-x-x-x-x-x----|
B|-1-1-1-1-1-1-H-3-3-3-3-3-3/5-5-5-5-5-5-|-3-3-3-3-3-3----|
G|-2-2-2-2-2-2---2-2-2-2-2-2/4-4-4-4-4-4-|-4-4-4-4-4-4----|end of 2nd riff 
D|-3-3-3-3-3-3---3-3-3-3-3-3/5-5-5-5-5-5-|-5-5-5-5-5-5----| 
A|-0-0-0-0-0-0---0-0-0-0-0-0/0-0-0-0-0-0-|-0-0-0-0-0-0----|
E|-x-x-x-x-x-x---x-x-x-x-x-x/x-x-x-x-x-x-|-x-x-x-x-x-x----|
*when playing the hammer-ons in the verses. Don’t make the hammer-on audible.

CHORUS (from 0:35-0:44)
hit each “chord” once
E|-x-|-x-|-x-|-x-|------|-x-|-x-|-x-|-x------|
B|-1-|-3-|-5-|-3-|------|-1-|-3-|-5-|-3------|
G|-2-|-4-|-4-|-4-|-THEN-|-2-|-2-|-4-|-4------|
D|-3-|-5-|-5-|-5-|------|-3-|-3-|-5-|-5------|
A|-0-|-0-|-0-|-0-|------|-0-|-0-|-0-|-x------|
E|-x-|-x-|-x-|-x-|------|-x-|-x-|-x-|-x------|

The above ‘verse’ riffs aren’t exact rhythm. I just did that to show the chord 
changes. And I learned this by ear.

This is a video where you can see the band playing it: http://www.youtube.com/watch?v=AjTT4CL57Lo
Tap to rate this tab
# A B C D E F G H I J K L M N O P Q R S T U V W X Y Z