Song name
# A B C D E F G H I J K L M N O P Q R S T U V W X Y Z

Misc Unsigned Bands - Mat Baillargeon - Summertime chords

Highlighted       Show chord diagrams
-----------------------------------------------------------------------------
                             Summertime - Mat Baillargeon
-----------------------------------------------------------------------------
Tabbed by: mbaillargeon
E-mail:mat.baillargeon@gmail.com

Tuning:Standard

Chords
   E7  Dm7 G   F   A# A#sus4 A#(v2)
e|-4---5---3---1---6----6----1---|
B|-5---6---3---1---6----6----3---|
G|-4---5---4---2---7----8----3---|
D|-0---0---5---3---8----8----3---|
A|-x---x---5---3---8----6----1---|
E|-x---x---3---1---6----6----1---|

Intro / Verses: 
e|--4/5---5---5---5---5---3-------------4/5---5---5---5---5---3-------------|
B|--5/6---6---6---6---6---3-------------5/6---6---6---6---6---3-------------|
G|--4/5---5---5---5---5---4-------------4/5---5---5---5---5---4-------------|
D|--0-0---0---0---0---0---5-------------0-0---0---0---0---0---5-------------|
A|--x-x---x---x---x---x---5-------------x-x---x---x---x---x---5-------------|
E|--x-x---x---x---x---x---3-------------x-x---x---x---x---x---3-------------|


Refrain:
e|--6---6---6---6---1------------6---6---6---6---1--------------------------|
B|--6---6---6---6---1------------6---6---6---6---1--------------------------|
G|--7---7---8---8---2------------7---7---8---8---2--------------------------|
D|--8---8---8---8---3------------8---8---8---8---3--------------------------|
A|--8---8---6---6---3------------8---8---6---6---3--------------------------|
E|--6---6---6---6---1------------6---6---6---6---1--------------------------|


That's roughly the chords I play, here's the lyrics and chords for the song

Verse 1:

E7/Dm7          G
Sun is shining, waves crash the shore

E7/Dm7               G
Nothing to remember, nothing to work for

E7/Dm7             G
Drinking lemonade, no grab me a beer

F                             G
Got the sand between my toes, can't ask for no more 


Refrain:

       A#        A#sus4   F
'Cause it's summertime     Sun is shining and we're

       A#        A#sus4   F
Having a good time         You and me girl

 A#        A#sus4   F
All we need          Is for this to

 A#(v2)  F    A#(v2)  F 
never end, never end

Verse 2:
turn up the music, put on your shades
spf 50, screw the shade
it could only be better if the water was warm
if this wasn't New England, we'd have it made



************************************

| /   slide up
| \   slide down
| h   hammer-on
| p   pull-off
| ~   vibrato
| +   harmonic
| x   Mute note
| b   Bend
| pb  Pre-bend
| br  Bend release
| pbr Pre-bend release
| brb Bend release bend

************************************
Tap to rate this tab
 
# A B C D E F G H I J K L M N O P Q R S T U V W X Y Z