Song name
# A B C D E F G H I J K L M N O P Q R S T U V W X Y Z

Misc Unsigned Bands - Madbones - All The Things She Said tab

-------------------------------------------------------------------------------
                             All The Things She Said - Madbones
-------------------------------------------------------------------------------
Tabbed by: Emorak
E-mail: em0c00kiie@hotmail.co.uk

Tuning: DGCFAD


I'm still working on the bridge and the solo but here is the most part of
the song, enjoy!

Any corrections, email :3



Intro/Chorus
d|---------------------------------------------------------------------------|
A|---------------------------------------------------------------------------|
F|--7~--7-7-7~--7-7--6~--6-6-6~--6-6-----------------------------------------|
C|--7~--7-7-7~--7-7--6~--6-6-6~--6-6--4~--4-4-4~--4-4--7~--7-7-7~--7---------|
G|--5~--5-5-5~--5-5--4~--4-4-4~--4-4--4~--4-4-4~--4-4--7~--7-7-7~--7---------|
D|------------------------------------2~--2-2-2~--2-2--5~--5-5-5~--5---------|

Chrous Pt.2
d|---------------------------------------------------------------------------|
A|---------------------------------------------------------------------------|
F|--7~-----7~-----6~-----6~--------------------------------------------------|
C|--7~-----7~-----6~-----6~-----4~----4~-----7~-----7~-----------------------|
G|--5~-x-x-5~-x-x-4~-x-x-4~-x-x-4~----4~-----7~-----7~-----------------------|
D|------------------------------2-x-x-2~-x-x-5~-x-x-5~-----------------------|

Pre Chorus (palm mute heavily, let last note ring w/o pm)
d|---------------------------------------------------------------------------|
A|---------------------------------------------------------------------------|
F|-----------------7---------------------------------------------------------|
C|--4----2----7----7---------------------------------------------------------|
G|--4----2----7----4---------------------------------------------------------|
D|--2----0----5--------------------------------------------------------------|


************************************

| /   slide up
| \   slide down
| h   hammer-on
| p   pull-off
| ~   vibrato
| +   harmonic
| x   Mute note
| b   Bend
| pb  Pre-bend
| br  Bend release
| pbr Pre-bend release
| brb Bend release bend

************************************
Tap to rate this tab
# A B C D E F G H I J K L M N O P Q R S T U V W X Y Z