Song name
# A B C D E F G H I J K L M N O P Q R S T U V W X Y Z

Misc Unsigned Bands - Danny Flaherty - Stanleys Song tab

-------------------------------------------------------------------------------
                             Stanley´s Song - Danny Flaherty
-------------------------------------------------------------------------------
Tabbed by: paramore8793
E-mail: sam_parawhore@hotmail.com

Tuning: Half-Step Down

This song is from the American Serie "Skins US" played by Danny Flaherty 
(Stanley). It's the song that plays in the season finale Eura  
https://twitter.com/#!/dannyflaherty_


Repite all this as much as necessary

e|---------------------------------------------------------------------------|
B|-------0-----0----0-----0----0------0----0-------0-------------------------|
G|----1-----------1----------1-----------1-----------------------------------|
D|---------------------------------------------------------------------------|
A|---------------------------------------------------------------------------|
E|---------------------------------------------------------------------------|

e|---------------------------------------------------------------------------|
B|-------2-----2----2-----2-----2-----2-----2-------2------------------------|
G|----2-----------2----------2-----------2-----------------------------------|
D|---------------------------------------------------------------------------|
A|---------------------------------------------------------------------------|
E|---------------------------------------------------------------------------|

I look at the stars and I see the moon
I look out my window and I see the birds in the sky
I look in her eyes and what do I see
She smells like flowers and tastes like butter

So I tried to spread her on with the knife in my hand
But the knife in my hand didn't understand
That she was like a book that I had to read
But I hadn't brought my glasses with me

So I laid down the book
I laid down the line
I took a little lid

                          E ...  
And I took a little wine


*Chords Used:  E  A  F#m  G#m


             A   
Whenever I am wasted

             E
Whenever we're apart

             A
The love that I have tasted
             
             E   
Comes rushing to my heart

             F#m
Whenever I am burned out

             G#m
Whenever I am tired

       A    
I look for you

       E
I look for you...


I tabbed this song a few day because i realized that there's no tabs for this 
song, so i made it. Enjoy the song! :)


************************************

| /   slide up
| \   slide down
| h   hammer-on
| p   pull-off
| ~   vibrato
| +   harmonic
| x   Mute note
| b   Bend
| pb  Pre-bend
| br  Bend release
| pbr Pre-bend release
| brb Bend release bend

************************************
Tap to rate this tab
# A B C D E F G H I J K L M N O P Q R S T U V W X Y Z