Song name
# A B C D E F G H I J K L M N O P Q R S T U V W X Y Z

Misc Unsigned Bands - The Classic - Nuh Eh Ge Nan Na Eh Ge Nun Me To You You To Me tab

I just saw the movie and cried... 3 times >_>

My first tab, please let me know if there are mistakes,
I stole it from a really bad youtube tutorial and just
transcribed it to tab. I don't check here so please shoot
an email to buckeeball@gmail.com for feedback, thanks!

I dunno if it's right but the pattern I use is:

Down.... Up Down (ghost up) Down Up (change chord) Down...

chords:

G, D, Em, Bm, C, G, Am, D7
G, D, Em, G7, C, G, Am, D7

D7: xx0212
G7: 320001

intro

----------------------------------------------------------------------------|
----------------------------------------------------------------------------|
------------------------------------------------------/9-----9--------------|
---------------------------------11-----------7h9-7------7-7---7-9----------|
-10b12-pb12-pb12-pb12-pb12r10-10----10-----------------------------8--------|
----------------------------------------------------------------------------|

-------------------------------------------------------------------------|
-------------------------------------------------------------------------|
-------------------------------------------------------------------------|
-------------------------------------------------------------------------|
-10b-(hold)-pb12r10-10---------------------------------------------------|
-------10----------------------------------------------------------------|

--------------------------------------------------------------------------|
--------------------------------------------------------------------------|
----------------(backwards slide)--\7--5--7--5-5--------------------------|
-----------------------7--9--7--------------------------------------------|
----------9---9---8-------------------------------------------------------|
-10/12--7---7---7---------------------------------------------------------|

solo

-----------------------------------------------------------------------|
-----------------------------------------------------------------------|
-----------------------------------------------------------------------|
-----------------------------------------------------------------------|
-pb12r10-10-12vvv----10-10b12r10-10vvv---------------------------------|
-----------------------------------------------------------------------|

-------------------------------------------------------------------------|
-/7----------------------------------------------------------------------|
----5-7/9----------------------------------------------------------------|
---------7-9---9---------------------------------------------------------|
-------------8---10b12r10-8-10-8-10b12vv---------------------------------|
-----------------------------------------10b12pb12r10--------------------|

--------------------------------------------------------------------------|
--------------------------------------------------------------------------|
-------------------------------------------------------------14-----------|
-------------------------------------------------14-12-14-12----12h14-----|
-10-10h12---8--10--8-8---------------------15-12-----------------------12-|
-10-10--------------------15b17pb17r15--12--------------------------------|

-------------------------------------------------------------------------|
-------------------------------------------------------------------------|
-----------------------------14------------------------------------------|
-----------------14b16r14p12----12h14-12---------------------------------|
-15b17pb17r15-12---------------------------------------------------------|
-------------------------------------------------------------------------|

---------------------------------------------------------------------------|
---------------------------------------------------------------------------|
-12-14---------------------------------------------------------------------|
-------12-14---------------------------------------------------------------|
-------------12-15-15-12-15------------------------------------------------|
----------------------------12-15vvv---------------------------------------|
Tap to rate this tab
 
# A B C D E F G H I J K L M N O P Q R S T U V W X Y Z