Song name
# A B C D E F G H I J K L M N O P Q R S T U V W X Y Z

Misc Unsigned Bands - Proven Ground - What No Cake tab

Band :proven ground 
Song :What no cake
Tabbed by: ChRiS! 
link:www.P-g.cjb.net
Lyrics:www.geocities.com/provengroundguitarist/whatnocake

. = palm mute

Intro and verses and part where you say 
(what no cake!?) over and over.

e-----------------------------
b-----------------------------
g-----------------------------  
d--5-5-5-7-7-7-9-9-9-7-7-7----   x4
a--5-5-5-7-7-7-9-9-9-7-7-7----
E--3-3-3-5-5-5-7-7-7-5-5-5----

Start each line of the verse on:

e-----------------------------
b-----------------------------
g-----------------------------
d--5--------------------------
a--5--------------------------
E--3--------------------------

bridge:

e---------------------------------------
b---------------------------------------
g---------------------------------------
d--5-5-9-9-9-9-7-7-5-5-5-5-5------------
a--5-5-9-9-9-9-7-7-5-5-5-5-5------------
E--3-3-7-7-7-7-5-5-3-3-3-3-3------------
                   . . . . . 

finish with intro 4 times

and your done!........pretty simple song!

Tabbed by the proven ground guitarist
Chris,
hope you enjoy!
Tap to rate this tab
 
# A B C D E F G H I J K L M N O P Q R S T U V W X Y Z