Song name
# A B C D E F G H I J K L M N O P Q R S T U V W X Y Z

Misc Unsigned Bands - Millions - Slow Burner tab

This is a great song from the Brisbane boys Millions. This tab doesn't do the song 
complete justice in terms of accuracy but is more or less correct I believe. Feel 
free to suggest otherwise. 

E             C#m
Back again on memory lane, 
E                   C#m
Its been a year and nothing has changed,
E                   C#m
I test my patience but I want something knew,
E                   C#m
I found a girl but she left me for you 

E                  C#m
Back again my days are the same,
E                  C#m
wake up late and the days gone away, 
E                 C#m
Little after and little Iíll do,
E                  C#m
I found a girl but she left me for you


A                           Bb
But when I think to myself, I donít want no one else


(Chorus)x2(see tab below)
Wont you just stay with me,
|------------------------------------------------------------|
|------------------------------------------------------------|
|------------------------------------------------------------|
|--------------9--9--11-11-11b12r11--------------------------|
|--11-11-11-11-11-11-11-11-11-11-11-11-11-11-11--------------|
|--0--0--0--0--0--0--0--0--0--0--0--0--0--0--0---------------|

so like an ageing sea <(wrong lyric) 
|------------------------------------------------------------|
|------------------------------------------------------------|
|------------------------------------------------------------|
|------------------------------------------------------------|
|--6-6-6-6-9-9-11-11-11b12r11-11-6-6-6-6---------------------|
|--0-0-0-0-0-0-0--0--0--0--0--0--0-0-0-0---------------------|

Wont you just stay with me,
|------------------------------------------------------------|
|------------------------------------------------------------|
|------------------------------------------------------------|
|--------------9--9--11-11-11b12r11--------------------------|
|--11-11-11-11-11-11-11-11-11-11-11-11-11-11-11--------------|
|--0--0--0--0--0--0--0--0--0--0--0--0--0--0--0---------------|

 so like an ageing sea        
|------------------------------------------------------------|
|------------------------------------------------------------|
|------------------------------------------------------------|
|--------------9--9--11-11-11b12r11--------------------------|
|--11-11-11-11-11-11-11-11-11-11-11-11-11-11-11--------------|
|--0--0--0--0--0--0--0--0--0--0--0--0--0--0--0---------------|



That's basically it. The verse and chorus just pretty much repeat.
Enjoy. Fossil
Tap to rate this tab
 
# A B C D E F G H I J K L M N O P Q R S T U V W X Y Z