Song name
# A B C D E F G H I J K L M N O P Q R S T U V W X Y Z

Misc Unsigned Bands - Dead Christ Cult - Lzheprorok tab

Band: Dead Christ Cult
Song: Lzheprorok
Album: Your Absurd Life
Tab by: Someone(fimbulwinter@abv.bg)

Tuning: D standart ( 1 whole step down)

Listen to the song for timing.


x4
e||----------------------------------------------------------------------------|
B||----------------------------------------------------------------------------|
G||-------9--8-----------9-----------------------------------------------------|
D||--7----7--6----9------7-----------------------------------------------------|
A||----000--0-0---7--777-----missing the end (improvise)-----------------------|
E||----------------------------------------------------------------------------|

tremolo picking  x4
e||----------------------------------------------------------------------------|
B||----------------------------------------------------------------------------|
G||----9-8---------------------------------------------------------------------|
D||--7-----9-10---6-10-7-7-6-------10-9----------------------------------------|
A||-------------8------------7-8-7---------------------------------------------|
E||----------------------------------------------------------------------------|

x4
e||----------------------------------------------------------------------------|
B||--------------------------------------8-7-----------------------------------|
G||-----2----2----2--5-7----2----2----2--5-4-----------------------------------|
D||-----2----2----2--3-5----2----2----2----------------------------------------|
A||--00-0-00-0-00-0------00-0-00-0-00-0----------------------------------------|
E||----------------------------------------------------------------------------|


tremolo picking  x4
e||----------------------------------------------------------------------------|
B||----------------------------------------------------------------------------|
G||----------------------------------------------------------------------------|
D||---7------------6-----------3------------6-----------------------------2----|
A||----------------------------------------------------------------------------|
E||----------------------------------------------------------------------------|


x4                  p.h               p.h
D||----------------------------------------------------------------------------|
A||----------------------------------------------------------------------------|
F||-----------------7b----------------------------------7----------------------|
C||---7------10------------9-----5-----7~--7-----10-------9-10-----10-6-6~-----|
G||-----0-0-----0-0----0-0---0-0---0-0-------0-0----0-0--------0-0-------------|
D||----------------------------------------------------------------------------|


tremolo picking  x4
e||----------------------------------------------------------------------------|
B||----------------------------------------------------------------------------|
G||----------------------------------------------------------------------------|
D||---7------------6-----------3------------6-----------------------------2----|
A||----------------------------------------------------------------------------|
E||----------------------------------------------------------------------------|


x2
e||----------------------------------------------------------------------------|
B||----------------------------------------------------------------------------|
G||---------9--------------10--------------9-----------------------------------|
D||--7-7-10---10-9-8-10-11----11-10-7-7-10---10-9--------10-9------------------|
A||-----------------------------------------------8-8-11------10~--------------|
E||----------------------------------------------------------------------------|


x4                  p.h               p.h
D||----------------------------------------------------------------------------|
A||----------------------------------------------------------------------------|
F||-----------------7b----------------------------------7----------------------|
C||---7------10------------9-----5-----7~--7-----10-------9-10-----10-6-6~-----|
G||-----0-0-----0-0----0-0---0-0---0-0-------0-0----0-0--------0-0-------------|
D||----------------------------------------------------------------------------|


x2
e||----------------------------------------------------------------------------|
B||----------------------------------------------------------------------------|
G||---------9--------------10--------------9-----------------------------------|
D||--7-7-10---10-9-8-10-11----11-10-7-7-10---10-9--------10-9------------------|
A||-----------------------------------------------8-8-11------10~--------------|
E||----------------------------------------------------------------------------|

x2
e||----------------------------------------------------------------------------|
B||----------------------------------------------------------------------------|
G||----------------------------------------------------------------------------|
D||----------------------------------------------------------------------------|
A||---0-------------2---------0---------------2--------0-----------------------|
E||----------1------------------------1----------------------------------------|

tremolo picking  x4
e||----------------------------------------------------------------------------|
B||----------------------------------------------------------------------------|
G||---9------9-8-----8-9------9-10---------------------------------------------|
D||-----7-10-----6-9-----7-10--------------------------------------------------|
A||----------------------------------------------------------------------------|
E||----------------------------------------------------------------------------|

tremolo picking  x2
e||----------------------------------------------------------------------------|
B||----------------------------------------------------------------------------|
G||--9--------9-12-10-9--------------------------------------------------------|
D||----10-9-7-----------10-9-7---12-10-9---------------------------------------|
A||----------------------------8-----------------------------------------------|
E||----------------------------------------------------------------------------|


tremolo picking  x2
e||----------------------------------------------------------------------------|
B||----------------------------------------------------------------------------|
G||---9------9-8-----8-9------9-10---------------------------------------------|
D||-----7-10-----6-9-----7-10--------------------------------------------------|
A||----------------------------------------------------------------------------|
E||----------------------------------------------------------------------------|



tremolo picking  x2
e||----------------------------------------------------------------------------|
B||----------------------------------------------------------------------------|
G||------------9-8-----------------9-8-----------------------------------------|
D||---9-7-7-10-----9-10----7-7-10-----9----------------------------------------|
A||--------------------------------------8-------------------------------------|
E||----------------------------------------------------------------------------|


tremolo picking  x4
e||----------------------------------------------------------------------------|
B||----------------------------------------------------------------------------|
G||----9-8---------------------------------------------------------------------|
D||--7-----9-10---6-10-7-7-6-------10-9----------------------------------------|
A||-------------8------------7-8-7---------------------------------------------|
E||----------------------------------------------------------------------------|


tremolo picking  x4
e||----------------------------------------------------------------------------|
B||----------------------------------------------------------------------------|
G||----------------------------------------------------------------------------|
D||---7------------6-----------3------------6-----------------------------2----|
A||----------------------------------------------------------------------------|
E||----------------------------------------------------------------------------|


x4                  p.h               p.h
D||----------------------------------------------------------------------------|
A||----------------------------------------------------------------------------|
F||-----------------7b----------------------------------7----------------------|
C||---7------10------------9-----5-----7~--7-----10-------9-10-----10-6-6~-----|
G||-----0-0-----0-0----0-0---0-0---0-0-------0-0----0-0--------0-0-------------|
D||----------------------------------------------------------------------------|
Tap to rate this tab
# A B C D E F G H I J K L M N O P Q R S T U V W X Y Z