Song name
# A B C D E F G H I J K L M N O P Q R S T U V W X Y Z

Misc Unsigned Bands - Escapers - Best Lie Yet tab

Best Lie Yet-Escapers

www.youtube.com/TheEscapersMusic is where you'll find this band's music

INTRO Guitar 1 (Main Riff)

e --////--------////------|
B --////--------////------|
G --////--------////------|
D --////--------////------|
A 4-////------2-////------|
E 2-////5h7-5-0-////5h7-5-|

Guitar 2

e ------------------------------------------------|
B ------------------------------------------------|
G 11-11-11-11-11-11-11-11-11-11-11-11-11-11-11-11-|
D 11-11-11-11-11-11-11-11-11-11-11-11-11-11-11-11-|
A ------------------------------------------------|
E ------------------------------------------------|

e --------------------------------|
B --------------------------------|
G 9-9-9-9-9-9-9-9-6-6-6-6-6-6-6-6-|
D 9-9-9-9-9-9-9-9-6-6-6-6-6-6-6-6-|
A --------------------------------|
E --------------------------------|

Verse same thing

CHORUS Guitar 1 & Guitar 2

e ----------------------------------------------------------------|
B ----------------------------------------------------------------|
G ----------------------------------------------------------------|
D ------------------------------------------------6-6-6-6-6-6-6-6-|
A 4-4-4-4-4-4-4-4-7-7-7-7-7-7-7-7-2-2-2-2-2-2-2-2-4-4-4-4-4-4-4-4-|
E 2-2-2-2-2-2-2-2-5-5-5-5-5-5-5-5-0-0-0-0-0-0-0-0-----------------|

VERSE again

CHORUS

Buildup
Guitar 1
e ----------------------------------------------------------------|
B ----------------------------------------------------------------|
G ----------------------------------------------------------------|
D ------------------------------------------------6-6-6-/-/-6-6---|
A 4-4-4-/-/-4-4-/-7-7-7-/-/-7-7-/-2-2-2-/-/-2-2-/-4-4-4-/-/-4-4---|
E 2-2-2-/-/-2-2-/-5-5-5-/-/-5-5-/-0-0-0-/-/-0-0-/-----------------|

Guitar 2 (Buildup/Solo)
Neck slide all the way up to the 9th fret in solo
e ---------------------------------------------------------------------------|
B ---------------------------------------------------------------------------|
G ---------------------------------------------------------------------------|
D -------------7-9-7---------------------------------------------------------|
A 9-9-9-7-9-7-9-----9-7-9-9-9-7---7---7-9-9h11-11h12-12h14-14h16-16h18-18h19-|
E ------------------------------9---9----------------------------------------|

CHORUS

After drum solo

A -4--- (hold)
E -2---
Tap to rate this tab
# A B C D E F G H I J K L M N O P Q R S T U V W X Y Z