Song name
# A B C D E F G H I J K L M N O P Q R S T U V W X Y Z

Misc Unsigned Bands - Colossal - Not Sure Yet tab

okay i needed to write this down somewhere so i won't forget it. 

p = pull off
b = bend


|-----------------------------------------------------|
|-----------------------------------------------------|
|-----0---0---0---0----0---0----0---0---0----0---0--0-|
|----2---2-------2----2--------0---0------------------|
|---0---0---0---3----3----3-----------------3---3-----|
|-----------------------------3---3----3---1---1---1--|

do you remember the end of time, when the clock struck us out?

|-----------------------------------------------------|
|-----------------------------------------------------|
|-----0---0---0---0----0---0----0---0---0----0---0--0-|
|----2---2-------2----2--------0---0------------------|
|---0---0---0---3----3----3-----------------3---3-----|
|-----------------------------3---3----3---1---1---1--|

do you remember what it's like to drift, no sight, no sound?

|-----------------------------------------------------|
|-----------------------------------------------------|
|-----0---0---0---0----0---0----0---0---0----0---0--0-|
|----2---2-------2----2--------0---0------------------|
|---0---0---0---3----3----3-----------------3---3-----|
|-----------------------------3---3----3---1---1---1--|

the water spread, the daylight dead. when mother spoke, her branches broke.

(lead)
|----------------------------------------|
|----------------------------------------|
|----5-4-2~---0-0~--------0--------------|
|--------------2------2~-----0~----------|
|---0----------------------------3p0-3b-0|
|----------------------------------------|



chorus
and the sun was just a star, and the moon fell as a crescent
and the hours washed away, there was no past and no present


obviously not done, but i'm working on it!
Tap to rate this tab
# A B C D E F G H I J K L M N O P Q R S T U V W X Y Z