Song name
# A B C D E F G H I J K L M N O P Q R S T U V W X Y Z

Misc Unsigned Bands - Lastdecision - All A Lie tab

This is the rhythm guitar track to a song written by my band, LastDecision. Enjoy.

    * = strike fret and quickly lift off
    / = slide up from lower frets
    \ = slide down from higher frets
    . = palm mute
    b = note bend
    x2 = play multiple times

Intro
-----------------------------------------------------------------------------

Rhythm Guitar

    e [---------------------------------------------------------------------------]
    B [---------------------------------------------------------------------------]
    G [---------------------------------------------------------------------------] repeat 2x
    D [0-00-00-00-0-/3-/5--0-00-00-00-0-/5-\3--0-00-00-00-0-/3-/5--/8-8--8-\7-7--7]
    A [0-00-00-00-0-/3-/5--0-00-00-00-0-/5-\3--0-00-00-00-0-/3-/5--/8-8--8-\7-7--7]
    D [0-00-00-00-0-/3-/5--0-00-00-00-0-/5-\3--0-00-00-00-0-/3-/5--/8-8--8-\7-7--7]
       . .. .. .. . . . . .. .. .. . . . . .. .. .. . . . .  .  .   . .  .  . .  .

    e [---------------------------------------------------------------------------]
    B [---------------------------------------------------------------------------]
    G [---------------------------------------------------------------------------] repeat 2x
    D [0-00-00-00-0-/3-/5--0-00-00-00-0-/5-\3--0-00-00-00-0-/3-/5--/8-8--8-\7-7--7]
    A [0-00-00-00-0-/3-/5--0-00-00-00-0-/5-\3--0-00-00-00-0-/3-/5--/8-8--8-\7-7--7]
    D [0-00-00-00-0-/3-/5--0-00-00-00-0-/5-\3--0-00-00-00-0-/3-/5--/8-8--8-\7-7--7]

    e [--------------------------------------------------]
    B [--------------------------------------------------]
    G [--------------------------------------------------]
    D [0---------------0---------------------------------]
    A [0-(let it ring)-0--(bass and lead guitar riffs)---]
    D [0---------------0---------------------------------]
                       . (palm mute immediately)

Verse 1
-----------------------------------------------------------------------------

    e [-----------------------------------------------------------]
    B [-----------------------------------------------------------]
    G [-----------------------------------------------------------]
    D [1\0-0-00-00-------5-0-3-0-1\0-0-00-00-------5-0-3-0-6-5-3-5]
    A [1\0-0-00-00-0-0-0-5-0-3-0-1\0-0-00-00-0-0-0-5-0-3-0-6-5-3-5]
    D [1\0-0-00-00-0-0-0-5-0-3-0-1\0-0-00-00-0-0-0-5-0-3-0-6-5-3-5]

    e [-----------------------------------------------------------]
    B [-----------------------------------------------------------]
    G [-----------------------------------------------------------]
    D [1\0-0-00-00-------5-0-3-0-1\0-0-00-00-------5-0-3-0-6-5-3-5]
    A [1\0-0-00-00-0-0-0-5-0-3-0-1\0-0-00-00-0-0-0-5-0-3-0-6-5-3-5]
    D [1\0-0-00-00-0-0-0-5-0-3-0-1\0-0-00-00-0-0-0-5-0-3-0-6-5-3-5]

    e [-----------------------------------------------------------------------------]
    B [-----------------------------------------------------------------------------]
    G [-----------------------------------------------------------------------------]
    D [8-88-88-8-\5-\3-/5-/8-88-88-8-\3-/5-/6-/8-88-88-8-\5-\3-/5-8-88-88-8-\3-/5-/6]
    A [8-88-88-8-\5-\3-/5-/8-88-88-8-\3-/5-/6-/8-88-88-8-\5-\3-/5-8-88-88-8-\3-/5-/6]
    D [8-88-88-8-\5-\3-/5-/8-88-88-8-\3-/5-/6-/8-88-88-8-\5-\3-/5-8-88-88-8-\3-/5-/6]
       * ** ** *  *  *  *  * ** ** *  *  *  *  * ** ** *  *  *  * * ** ** *  *  *  *

Chorus
-----------------------------------------------------------------------------

    e [-----------------------------------------------------------------------]
    B [-----------------------------------------------------------------------]
    G [-----------------------------------------------------------------------]
    D [888888888888\555\333/55/888888888888\333/555/66/888888888888\555\333/55]
    A [888888888888\555\333/55/888888888888\333/555/66/888888888888\555\333/55]
    D [888888888888\555\333/55/888888888888\333/555/66/888888888888\555\333/55]

    e [--------------------------------------------------]
    B [--------------------------------------------------]
    G [--------------------------------------------------]
    D [888888888888\333/555/66---------------------------]
    A [888888888888\333/555/66-(hesitate a short period)-]
    D [888888888888\333/555/66---------------------------]

Verse 2
-----------------------------------------------------------------------------

    e [-----------------------------------------------------------]
    B [-----------------------------------------------------------]
    G [-----------------------------------------------------------]
    D [1\0-0-00-00-------5-0-3-0-1\0-0-00-00-------5-0-3-0-6-5-3-5]
    A [1\0-0-00-00-0-0-0-5-0-3-0-1\0-0-00-00-0-0-0-5-0-3-0-6-5-3-5]
    D [1\0-0-00-00-0-0-0-5-0-3-0-1\0-0-00-00-0-0-0-5-0-3-0-6-5-3-5]

    e [-----------------------------------------------------------]
    B [-----------------------------------------------------------]
    G [-----------------------------------------------------------]
    D [1\0-0-00-00-------5-0-3-0-1\0-0-00-00-------5-0-3-0-6-5-3-5]
    A [1\0-0-00-00-0-0-0-5-0-3-0-1\0-0-00-00-0-0-0-5-0-3-0-6-5-3-5]
    D [1\0-0-00-00-0-0-0-5-0-3-0-1\0-0-00-00-0-0-0-5-0-3-0-6-5-3-5]

    e [-----------------------------------------------------------------------------]
    B [-----------------------------------------------------------------------------]
    G [-----------------------------------------------------------------------------]
    D [8-88-88-8-\5-\3-/5-/8-88-88-8-\3-/5-/6-/8-88-88-8-\5-\3-/5-8-88-88-8-\3-/5-/6]
    A [8-88-88-8-\5-\3-/5-/8-88-88-8-\3-/5-/6-/8-88-88-8-\5-\3-/5-8-88-88-8-\3-/5-/6]
    D [8-88-88-8-\5-\3-/5-/8-88-88-8-\3-/5-/6-/8-88-88-8-\5-\3-/5-8-88-88-8-\3-/5-/6]
       * ** ** *  *  *  *  * ** ** *  *  *  *  * ** ** *  *  *  * * ** ** *  *  *  *

Chorus
-----------------------------------------------------------------------------

    e [-----------------------------------------------------------------------]
    B [-----------------------------------------------------------------------]
    G [-----------------------------------------------------------------------]
    D [888888888888\555\333/55/888888888888\333/555/66/888888888888\555\333/55]
    A [888888888888\555\333/55/888888888888\333/555/66/888888888888\555\333/55]
    D [888888888888\555\333/55/888888888888\333/555/66/888888888888\555\333/55]

    e [-----------------------]
    B [-----------------------]
    G [-----------------------] repeat 2x and hesitate after 2nd time
    D [888888888888\333/555/66]
    A [888888888888\333/555/66]
    D [888888888888\333/555/66]

Bridge
-----------------------------------------------------------------------------

    e [-------------------------------------------------------------------------]
    B [-------------------------------------------------------------------------]
    G [-------------------------------------------------------------------------] repeat 2x
    D [888888888888\555555555555/8888\7777/101010101010101010101010\000000000000]
    A [888888888888\555555555555/8888\7777/101010101010101010101010\000000000000]
    D [888888888888\555555555555/8888\7777/101010101010101010101010\000000000000]

Solo
-----------------------------------------------------------------------------

    e [---------------------------------------------------------------------]
    B [---------------------------------------------------------------------]
    G [---------------------------------------------------------------------] repeat 2x
    D [000000000000/555555555555/888888888888\333333333333/5555\000000000000]
    A [000000000000/555555555555/888888888888\333333333333/5555\000000000000]
    D [000000000000/555555555555/888888888888\333333333333/5555\000000000000]

Chorus
-----------------------------------------------------------------------------

    e [-----------------------------------------------------------------------]
    B [-----------------------------------------------------------------------]
    G [-----------------------------------------------------------------------]
    D [888888888888\555\333/55/888888888888\333/555/66/888888888888\555\333/55]
    A [888888888888\555\333/55/888888888888\333/555/66/888888888888\555\333/55]
    D [888888888888\555\333/55/888888888888\333/555/66/888888888888\555\333/55]

    e [-------------------------]
    B [-------------------------]
    G [-------------------------] let last note ring
    D [888888888888\333/555/66/8]
    A [888888888888\333/555/66/8]
    D [888888888888\333/555/66/8]
Tap to rate this tab
 
# A B C D E F G H I J K L M N O P Q R S T U V W X Y Z