Song name
# A B C D E F G H I J K L M N O P Q R S T U V W X Y Z

Misc Unsigned Bands - Oddball - Little Yellow Floating Ducks tab

This is my favorite song of all time, but it is a song from the mid-90's by a
little-known band named Oddball led by Trevor McNevan (my idol) of Thousand Foot Krutch 
and FM
Static (This guy is a freaking genius, check him out sometime). There is a video of this 
song on Youtube, I encourage you to check it out. I also encourage you to listen to other
Oddball songs and make and share tabs of your own of other Oddball songs, or even revise 
this tab. You can listen to all Oddball songs here: http://www.facebook.com/pages/
Oddball/239307006120931
It can be played in standard or Drop D, but I find it sounding better in Drop D.
Anyways, here it is, it's a really easy song to learn. Enjoy!

Strum pattern: D-D-U-D D-D-U-D D-D-U-D D-D-D

Intro/Verse (Start off slow, speed up, then have a tempo change around 0:40 the first
time, but NOT the second time)

e|------------------------------------------|
B|------------------------------------------|
G|--6--6-6-6---8--8-8-8---4--4-4-4----------|
D|--6--6-6-6---8--8-8-8---4--4-4-4---2-2-2--|
A|--4--4-4-4---6--6-6-6---2--2-2-2---2-2-2--|
E|-----------------------------------2-2-2--|

Chorus

e|-----------------------------------------|
B|-----------------------------------------|
G|-----------------------------------------|
D|--4--4-4-4--6--6-6-6--8-8-8-8-8-8-8-8-8--|
A|--4--4-4-4--6--6-6-6--8-8-8-8-8-8-8-8-8--|
E|--4--4-4-4--6--6-6-6--8-8-8-8-8-8-8-8-8--|

Outro

e|-----------------------------------------|
B|-----------------------------------------|
G|--4--4-4-4--6--6-6-6--8-8-8-8-8-8-8-8-8--|
D|--4--4-4-4--6--6-6-6--8-8-8-8-8-8-8-8-8--|
A|--4--4-4-4--6--6-6-6--8-8-8-8-8-8-8-8-8--|
E|--4--4-4-4--6--6-6-6--8-8-8-8-8-8-8-8-8--|
                          * * * * * * * *
*Only play first time

The order is: Intro x2, Verse x10, Chorus x6, Verse x10, Chorus x6, Outro x2


http://www.youtube.com/watch?v=LLi9jxnfwZU Here is the song on Youtube, let me know how
I did and if you like this then check out the Oddball Facebook page I mentioned earlier
in this post, I would love to have more Oddball tabs on this site! Rock on. -Krutch Kid
Tap to rate this tab
# A B C D E F G H I J K L M N O P Q R S T U V W X Y Z