Song name
# A B C D E F G H I J K L M N O P Q R S T U V W X Y Z

Misc Unsigned Bands - Suckerpunch - School tab

Band : Suckerpunch
Song : School

New band out of Virginia. three 14 year old kids trying to make it

-x--x-----x-----x----7--7-------------------
-x--x--5--x--7--x----5--5-------------------
-x--x--3--x--5--x---------------------------
-x--x-----x-----x---------------------------
-x--x-----x-----x---------------------------
-x--x-----x-----x---------------------------

-x--x-----x-----x----7--7-------------------
-x--x--5--x--7--x----5--5-------------------
-x--x--3--x--5--x---------------------------
-x--x-----x-----x---------------------------
-x--x-----x-----x---------------------------
-x--x-----x-----x---------------------------

-x--x-----x-----x----7--7-------------------
-x--x--5--x--7--x----5--5-------------------
-x--x--3--x--5--x---------------------------
-x--x-----x-----x---------------------------
-x--x-----x-----x---------------------------
-x--x-----x-----x---------------------------
Tap to rate this tab
# A B C D E F G H I J K L M N O P Q R S T U V W X Y Z