Song name
# A B C D E F G H I J K L M N O P Q R S T U V W X Y Z

Misc Unsigned Bands - Gumi Megpoid - Mosaic Roll tab

Any comments or mistakes email me m4pleking@yahoo.com


0:00

E-----------------------------------------------------------------|
B-----------------------------------------------------------------|
G-----------------------------------------------------------------|
D-7--5h7p5h7p5h7--9h10p9--7p5-------------------------------------| x8
A-7--5h7p5h7p5h7--9h10p9--7p5-------------------------------------|
D-7--5h7p5h7p5h7--9h10p9--7p5-------------------------------------|

0:13

E----------------------------------------------------------------|
B-10--12-14-12-14-12-14-20-17-20-17-20-17-20-17------------------|
G----------------------------------------------------------------|
D----------------------------------------------------------------|
A----------------------------------------------------------------|
D----------------------------------------------------------------|

E----12----------------------------------------------------------|
B-10----12-14-12-14-12-14-20-17-20-17-20-17-20-17----------------|
G----------------------------------------------------------------|
D----------------------------------------------------------------| x3
A----------------------------------------------------------------|
D----------------------------------------------------------------|

0:26

E----------------------------------------------------------------|
B----------------------------------------------------------------|
G----------------------------------------------------------------|
D-7--7-10-x-10-10-10----5--5-3--3-3-3----------------------------| x4
A-7--7-10-x-10-10-10----5--5-3--3-3-3----------------------------|
D-7--7-10-x-10-10-10----5--5-3--3-3-3----------------------------|

0:39

E----------------------------------------------------------------|
B-10--12-14-12-14-12-14-20-17-20-17-20-17-20-17------------------|
G----------------------------------------------------------------|
D----------------------------------------------------------------|
A----------------------------------------------------------------|
D----------------------------------------------------------------|

E----12----------------------------------------------------------|
B-10----12-14-12-14-12-14-20-17-20-17-20-17-20-17----------------|
G----------------------------------------------------------------|
D----------------------------------------------------------------| x3
A----------------------------------------------------------------|
D----------------------------------------------------------------|

0:52

E------------------------------------------------------------------------|
B-13-12------------------------------------------------------------10-12-|
G-------12-14-12------------------------------------------------10-------|
D----------------14-12-----12-10-----10-12-14-12-10-9-10-12-14-----------| x2
A----------------------10---------10-------------------------------------|
D------------------------------------------------------------------------|

1:06

E----------------------------------------------------------------|
B-13------15------12---------------------------------------------|
G-----12------12------12-----------------------------------------|
D----------------------------------------------------------------|
A----------------------------------------------------------------|
D----------------------------------------------------------------|

E-13-13-13-13-13-13-13-13-------------10-10-10-10----------------|
B-11-11-11-11-10-10-10-10-13-13-13-13-11-11-11-11----------------|
G-------------------------10-10-10-10----------------------------|
D----------------------------------------------------------------| x3
A----------------------------------------------------------------|
D----------------------------------------------------------------|

E-13-13-13-13-13-13-13-13----------------------------------------|
B-11-11-11-11-10-10-10-10-13-13-13-13----------------------------|
G-------------------------10-10-10-10----------------------------|
D----------------------------------------------------------------|
A----------------------------------------------------------------|
D----------------------------------------------------------------|

1:23

E----------------------------------------------------------------|
B-10--12-14-12-14-12-14-20-17-20-17-20-17-20-17------------------|
G----------------------------------------------------------------|
D----------------------------------------------------------------|
A----------------------------------------------------------------|
D----------------------------------------------------------------|

E----12----------------------------------------------------------|
B-10----12-14-12-14-12-14-20-17-20-17-20-17-20-17----------------|
G----------------------------------------------------------------|
D----------------------------------------------------------------| x3
A----------------------------------------------------------------|
D----------------------------------------------------------------|

1:36

E----------------------------------------------------------------|
B----------------------------------------------------------------|
G----------------------------------------------------------------|
D-----7-----10---------5-----3-----------------------------------| x4
A-x-x---x-x----x-x-x-x---x-x---x-x-------------------------------|
D----------------------------------------------------------------|

1:49

E----------------------------------------------------------------|
B----------------------------------------------------------------|
G----------------------------------------------------------------|
D-7--7-10-x-10-10-10----5--5-3--3-3-3----------------------------| x4
A-7--7-10-x-10-10-10----5--5-3--3-3-3----------------------------|
D-7--7-10-x-10-10-10----5--5-3--3-3-3----------------------------|

2:02

E----------------------------------------------------------------|
B----------------------------------------------------------------|
G----------------------------------------------------------------|
D-3~~~~~---------------------------------------------------------|
A-3~~~~~---------------------------------------------------------|
D-6~~~~~---------------------------------------------------------|

2:06
E------------------------------------------------------------------------|
B-----------------------------------------------11----13----11----13-----|
G------------------------------------7-8-10--10----10----10----10----10--|
D-10h12-10h12-10-8----8-10-8-10-12---------------------------------------|
A------------------10----------------------------------------------------|
D------------------------------------------------------------------------|

E-10-------------------------------------------------------------|
B-------13----11----10-------------------------------------------|
G----10----10----10----------------------------------------------|
D----------------------------------------------------------------|
A----------------------------------------------------------------|
D----------------------------------------------------------------|

2:12

E-13-13-13-13-13-13-13-13-------------10-10-10-10----------------|
B-11-11-11-11-10-10-10-10-13-13-13-13-11-11-11-11----------------|
G-------------------------10-10-10-10----------------------------|
D----------------------------------------------------------------| x2
A----------------------------------------------------------------|
D----------------------------------------------------------------|

2:32

E-14-14-14-14-14-14-14-14-------------11-11-11-11----------------|
B-12-12-12-12-11-11-11-11-14-14-14-14-12-12-12-12----------------|
G-------------------------11-11-11-11----------------------------|
D----------------------------------------------------------------| x4
A----------------------------------------------------------------|
D----------------------------------------------------------------|

2:45

E----------------------------------------------------------------|
B-9--11-13-11-13-11-13-19-16-19-16-19-16-19-16-------------------|
G----------------------------------------------------------------|
D----------------------------------------------------------------|
A----------------------------------------------------------------|
D----------------------------------------------------------------|

E---11-----------------------------------------------------------|
B-9----11-13-11-13-11-13-19-16-19-16-19-16-19-16-----------------|
G----------------------------------------------------------------|
D----------------------------------------------------------------| x2
A----------------------------------------------------------------|
D----------------------------------------------------------------|

E---11-----------------------------------------------------------|
B-9----11-13-11-13-11-13-19-16-19-16-19-16-16-16-----------------|
G----------------------------------------------------------------|
D----------------------------------------------------------------|
A----------------------------------------------------------------|
D----------------------------------------------------------------|
Tap to rate this tab
# A B C D E F G H I J K L M N O P Q R S T U V W X Y Z