Song name
# A B C D E F G H I J K L M N O P Q R S T U V W X Y Z

Misc Unsigned Bands - Flea - Time For Me To Go tab

-----------------------------------------------------------------------------
                             Time For Me To Go - Flea
-----------------------------------------------------------------------------

Standard Tuning

Chords: C F

Pretty much just plays this the whole way through.

e|------0------------------------------------------------------------------|
B|------1-------------1----------------------------------------------------|
G|--------------------2----------------------------------------------------|
D|--------------3-3-------0------------------------------------------------|
A|--3-------0--------------------------------------------------------------|
E|-------------------------------------------------------------------------|
Tap to rate this tab
# A B C D E F G H I J K L M N O P Q R S T U V W X Y Z