Song name
# A B C D E F G H I J K L M N O P Q R S T U V W X Y Z

Misc Unsigned Bands - Laurena Segura - Fireflies Of Montreal tab

Fireflies of Montreal- Laurena Segura.
Tuning- Standard, as on spotify. ( if you have the record you need to bump 
everything up one number - and the name of the chord will change)
Stupid UG didn't have her name in the database, but whatever :P

You have to listen to the song for the strumming, but it's real simple!

INTRO                  (D)
E |-------------------------------------------------|
B |-------------------------------------------------|
G |--------2--------2---------2----------2----------|
D |-----4--------4--------4---------4---------------|
A |--5--------5-------5---------5-------------------|
E |-------------------------------------------------|
VERSE                  (D)
E |-------------------------------------------------|
B |-------------------------------------------------|
G |--------2--------2---------2----------2----------|
D |-----4--------4--------4---------4---------------|
A |--5--------5-------5---------5-------------------|
E |-------------------------------------------------|
Ripple in the
                      (F#)
E |---------------------------------------------------|
B |---------------------------------------------------|
G |---------3---------3--------3-----------3----------|
D |------4--------4---------4----------4--------------|
A |---4-------4---------4----------4------------------|
E |---------------------------------------------------|
midnight  clouds
                      (G)        
E |-----------------------------------------------------|
B |---------3--------3--------3--------3----------------|
G |------4--------4--------4--------4-------------------|
D |---5--------5--------5--------5----------------------|
A |-----------------------------------------------------|
E |-----------------------------------------------------|
no stars at the
                      (D)     
E |-------------------------------------------------|
B |-------------------------------------------------|
G |--------2--------2---------2----------2----------|
D |-----4--------4--------4---------4---------------|
A |--5--------5-------5---------5-------------------|
E |-------------------------------------------------|
horizon
                       (D)
E |-------------------------------------------------|
B |-------------------------------------------------|
G |--------2--------2---------2----------2----------|
D |-----4--------4--------4---------4---------------|
A |--5--------5-------5---------5-------------------|
E |-------------------------------------------------|
Flicker from an
                      (F#)
E |---------------------------------------------------|
B |---------------------------------------------------|
G |---------3---------3--------3-----------3----------|
D |------4--------4---------4----------4--------------|
A |---4-------4---------4----------4------------------|
E |---------------------------------------------------|
old street light
                      (G)
E |-----------------------------------------------------|
B |---------3--------3--------3--------3----------------|
G |------4--------4--------4--------4-------------------|
D |---5--------5--------5--------5----------------------|
A |-----------------------------------------------------|
E |-----------------------------------------------------|
attracts the moths who claim the
                      (D)
E |-------------------------------------------------|
B |-------------------------------------------------|
G |--------2--------2---------2----------2----------|
D |-----4--------4--------4---------4---------------|
A |--5--------5-------5---------5-------------------|
E |-------------------------------------------------|
night
                      (D)
E |-------------------------------------------------|
B |-------------------------------------------------|
G |--------2--------2---------2----------2----------|
D |-----4--------4--------4---------4---------------|
A |--5--------5-------5---------5-------------------|
E |-------------------------------------------------|
Satellites that 
                     (F#)
E |---------------------------------------------------|
B |---------------------------------------------------|
G |---------3---------3--------3-----------3----------|
D |------4--------4---------4----------4--------------|
A |---4-------4---------4----------4------------------|
E |---------------------------------------------------|
pass overhead
                     (G)
E |-----------------------------------------------------|
B |---------3--------3--------3--------3----------------|
G |------4--------4--------4--------4-------------------|
D |---5--------5--------5--------5----------------------|
A |-----------------------------------------------------|
E |-----------------------------------------------------|
In the rib caged    
                    (D)
E |-------------------------------------------------|
B |-------------------------------------------------|
G |--------2--------2---------2----------2----------|
D |-----4--------4--------4---------4---------------|
A |--5--------5-------5---------5-------------------|
E |-------------------------------------------------|
sky
                     (D)
E |-------------------------------------------------|
B |-------------------------------------------------|
G |--------2--------2---------2----------2----------|
D |-----4--------4--------4---------4---------------|
A |--5--------5-------5---------5-------------------|
E |-------------------------------------------------|
If they stop,
                     (F#)
E |---------------------------------------------------|
B |---------------------------------------------------|
G |---------3---------3--------3-----------3----------|
D |------4--------4---------4----------4--------------|
A |---4-------4---------4----------4------------------|
E |---------------------------------------------------|
 we’re good as dead
                     (G)
E |-----------------------------------------------------|
B |---------3--------3--------3--------3----------------|
G |------4--------4--------4--------4-------------------|
D |---5--------5--------5--------5----------------------|
A |-----------------------------------------------------|
E |-----------------------------------------------------|
So then what good am 
                     (D)
E |-------------------------------------------------|
B |-------------------------------------------------|
G |--------2--------2---------2----------2----------|
D |-----4--------4--------4---------4---------------|
A |--5--------5-------5---------5-------------------|
E |-------------------------------------------------|
   I

CHORUS
                     (D)
E |---------------------------------------------------|
B |---------------------------------------------------|
G |---------3---------3--------3-----------3----------|
D |------4--------4---------4----------4--------------|
A |---4-------4---------4----------4------------------|
E |---------------------------------------------------|
‘Cause I’ve heard from
                       (G) 
E |-----------------------------------------------------|
B |---------3--------3--------3--------3----------------|
G |------4--------4--------4--------4-------------------|
D |---5--------5--------5--------5----------------------|
A |-----------------------------------------------------|
E |-----------------------------------------------------|
encounters with the past

E |------------------------------------------------------|
B |------5---------5--------5----------5-----------------|
G |---4---------4--------4---------4---------------------|
D |-2-------2---------2--------2-------------------------|
A |------------------------------------------------------|
E | -----------------------------------------------------|
The creatures gentle

E |------------------------------------------------------|
B |------------------------------------------------------|
G |---------2--------2-------2-------2-------------------|
D |------2--------2-------2-------2----------------------|
A |---4-------4--------4-------4-------------------------|
E |------------------------------------------------------|
glowing never lasts

E |-----------------------------------------------------|
B |---------3--------3--------3--------3----------------|
G |------4--------4--------4--------4-------------------|
D |---5--------5--------5--------5----------------------|
A |-----------------------------------------------------|
E |-----------------------------------------------------|
So won’t someone

E |-------------------------------------------------|
B |-------------------------------------------------|
G |--------2--------2---------2----------2----------|
D |-----4--------4--------4---------4---------------|
A |--5--------5-------5---------5-------------------|
E |-------------------------------------------------|
tell me after all

E |------------------------------------------------------|
B |------------------------------------------------------|
G |---------2--------2-------2-------2-------------------|
D |------2--------2-------2-------2----------------------|
A |---4-------4--------4-------4-------------------------|
E |------------------------------------------------------|

What happened to the fireflies of Montreal?


Darkness in the alley way
At least for some
In the sixties flew away
Left a few, now there are none
But I’ve heard from encounter with the past
The gentle creature’s glowing never lasts
So won’t someone tell me after all
What happened to the fireflies of Montreal?
Tap to rate this tab
 
# A B C D E F G H I J K L M N O P Q R S T U V W X Y Z