Song name
# A B C D E F G H I J K L M N O P Q R S T U V W X Y Z

Misc Unsigned Bands - Danny Baranowsky - Respite tab

From the Binding of Isaac soundtrack

Bass line
E --------|--------|--------|-------- ||
B --------|--------|--------|-------- ||
G --------|--------|--------|--------*||
D --5---5-|--3---1-|--5---5-|--3---1-.||
A 3-------|1-------|3-------|1------- ||
E ----4---|----1---|----4---|----1--- ||

Lead
E ---------|---------|---------|------------|
B ---------|---------|13-------|------------|
G ---------|---10----|---12----|15-14----10-|
D 10-------|12-------|---------|------------|
A ---------|---------|---------|------------|
E ---------|---------|---------|------------|

E ---------|---------|---------|------------|
B ---------|---------|---------|------------|
G 12-------|---------|---------|------------|
D ---10----|13-12--8-|10-------|------------|
A ---------|---------|---10----|13-12-----8-|
E ---------|---------|---------|------------|

E ---------|---------|---------|------------|
B ---------|---------|13-------|------------|
G ---12----|---10----|---12----|15-14----10-|
D 10-------|12-------|---------|------------|
A ---------|---------|---------|------------|
E ---------|---------|---------|------------|

E ---------|---------|---------|------------|
B ---------|---------|---------|------------|
G 12-------|---------|---------|------------|
D ---10----|13-12--8-|10-------|------------|
A ---------|---------|---10----|13-12-----8-|
E ---------|---------|---------|------------|
Tap to rate this tab
 
# A B C D E F G H I J K L M N O P Q R S T U V W X Y Z