Song name
# A B C D E F G H I J K L M N O P Q R S T U V W X Y Z

Misc Unsigned Bands - Gumi Megpoid - Coward Montblanc tab

any questions or mistakes email me m4pleking@yahoo.com

0:00

E----------------------------------------------------------------|
B----------------------------------------------------------------|
G----------------------------------------------------------------|
D-10-10---6-6---13-13---8-8--------------------------------------| x10
A-10-10---6-6---13-13---8-8--------------------------------------|
D-10-10---6-6---13-13---8-8--------------------------------------|

0:47

E----------------------------------------------------------------|
B----------------------------------------------------------------|
G----------------------------------------------------------------|
D-3-3-3-3-5-5-5-5------------------------------------------------|
A-3-3-3-3-5-5-5-5------------------------------------------------|
D-3-3-3-3-5-5-5-5------------------------------------------------|

0:49

E----------------------------------------------------------------|
B----------------------------------------------------------------|
G----------------------------------------------------------------|
D-10-10-10-10-6-6-6-6-13-13-13-13-8-8-8-8------------------------| x4
A-10-10-10-10-6-6-6-6-13-13-13-13-8-8-8-8------------------------|
D-10-10-10-10-6-6-6-6-13-13-13-13-8-8-8-8------------------------|

1:04

E----------------------------------------------------------------|
B----------------------------------------------------------------|
G----------------------------------------------------------------|
D-10-10---6-6---13-13---8-8--------------------------------------| x6
A-10-10---6-6---13-13---8-8--------------------------------------|
D-10-10---6-6---13-13---8-8--------------------------------------|

E----------------------------------------------------------------|
B----------------------------------------------------------------|
G----------------------------------------------------------------|
D-10-10-10-10-6-6-6-6-13-13-13-13-8-8-8-8------------------------| x4
A-10-10-10-10-6-6-6-6-13-13-13-13-8-8-8-8------------------------|
D-10-10-10-10-6-6-6-6-13-13-13-13-8-8-8-8------------------------|
   *  *  *  * * * * *  *  *  *  * * * * *

1:50

E----------------------------------------------------------------|
B----------------------------------------------------------------|
G----------------------------------------------------------------|
D-3-3-3-3-5-5-5-5------------------------------------------------|
A-3-3-3-3-5-5-5-5------------------------------------------------|
D-3-3-3-3-5-5-5-5------------------------------------------------|

1:52

E----------------------------------------------------------------|
B----------------------------------------------------------------|
G----------------------------------------------------------------|
D-10-10-10-10-6-6-6-6-13-13-13-13-8-8-8-8------------------------| x4
A-10-10-10-10-6-6-6-6-13-13-13-13-8-8-8-8------------------------|
D-10-10-10-10-6-6-6-6-13-13-13-13-8-8-8-8------------------------|

2:08

E----------------------------------------------------------------|
B-4-4-4-4-4-4-4-4-3-3-3-3-6-6-6-6--------------------------------|
G-3-3-3-3-3-3-3-3-3-3-3-3-3-3-3-3--------------------------------|
D----------------------------------------------------------------| x4
A----------------------------------------------------------------|
D----------------------------------------------------------------|

2:51

E----------------------------------------------------------------|
B----------------------------------------------------------------|
G----------------------------------------------------------------|
D-10-10---6-6---13-13---8-8--------------------------------------| x16
A-10-10---6-6---13-13---8-8--------------------------------------|
D-10-10---6-6---13-13---8-8--------------------------------------|
Tap to rate this tab
# A B C D E F G H I J K L M N O P Q R S T U V W X Y Z