Song name
# A B C D E F G H I J K L M N O P Q R S T U V W X Y Z

Misc Unsigned Bands - Blacktop Manhattan - Hollywise tab

*TAbbed by zack7521*
Intro

e|--------------------------|
B|--------------------------|
G|--------------------------|
D|--------------------3--1--| x2
A|1--4--4--3--3-1--4--------|
E|--------------------------|

Then you play the chords for a measure each.

Bb5|F#5|C#5|G#5| x2

or

D|8|4|11|6|
A|8|4|11|6| x2
E|6|2|9 |4|

For the verse, just play the same chords but palm muted. You should go through the 
chords four times. (After each line)

She's been living in a basement, down by the railroad tracks ...
Her dreams have left the station, the kids have all turned their backs ...
So lies in her bed and remembers when the moon it climbed so high ...
But with a spoon and a needle, she never has to leave the sky

For the chorus, play the chords w/o palm muting. Again, go through the chords four 
times. (After each line)

Superman is killing himself tonight, Hollywise, Hollywise
I'm selling my soul to be in the spotlight, Hollywise, Hollywise
Hollywise, Hollywise
...

He's been living with his mama, since the market crashed ...
His wife ran out with the docter when he ran out on cash ...
So now one hand holds a bottle, the other cradles a .44 ...
Two more shots and it's over, he just couldn't hang on no more

Superman is killing himself tonight, Hollywise, Hollywise
I'm selling my soul to be in the spotlight, Hollywise, Hollywise
Hollywise, Hollywise
...

Pre solo- Just re-intro, but play 3 A#s imstead of the last D#

e|------------------------------|
B|------------------------------|
G|------------------------------|
D|--------------------3--8-8-8--| x1
A|1--4--4--3--3-1--4------------|
E|------------------------------|

Solo

e|-----------------------16-13--------------------------------------|
B|/11--13--14--16--16-18-------16-14------/18-18-18-18-18-16-14-11--|
G|------------------------------------------------------------------|
D|------------------------------------------------------------------|
A|------------------------------------------------------------------|
E|------------------------------------------------------------------|

e|-------------------------------------13--16--13--/16--|
B|-11-13-14---11-13-14---14--13--14--16-----------------|
G|------------------------------------------------------|
D|------------------------------------------------------|
A|------------------------------------------------------|
E|------------------------------------------------------|

Superman is killing himself tonight, Hollywise, Hollywise
I'm selling my soul to be in the spotlight, Hollywise, Hollywise
Superman is killing himself, Superman is killing himself tonight
Superman is killing himself, Superman won't kill himeself tonight

A|1----------------------------------
Tap to rate this tab
 
# A B C D E F G H I J K L M N O P Q R S T U V W X Y Z