Song name
# A B C D E F G H I J K L M N O P Q R S T U V W X Y Z

Misc Unsigned Bands - Dancing With Ghost - Untitled tab

e|-----------------------------------------------------------------------------|
B|-----------------------------------------------------------------------------|
G|--------9---------9-----10---------------------------------------------------|
D|--------x---------x------x---------------------------------------------------|
A|--------7---------7------8---------------------------------------------------|
D|000-000---000-000---000------------------------------------------------------|


e|----------------------------------------------------------------------------|
B|----------------------------------------------------------------------------|
G|----------------------------------------------14--14-14-14---9---9-9-9--9/10|
D|10--10--10-10-10-10----10--10----10-10-10------x---x--x--x---x---x-x-x--x/x-|
A|-8---8---8--8--8--8-----8---8-----8--8--8-----12--12-12-12---7---7-7-7--7/8-|
D|-8---8---8--8--8--8-----8---8-----8--8--8-----------------------------------|
Tap to rate this tab
 
# A B C D E F G H I J K L M N O P Q R S T U V W X Y Z