Song name
# A B C D E F G H I J K L M N O P Q R S T U V W X Y Z

Misc Unsigned Bands - Heres To Hoping - Rebirth tab

(/) Slide Up  (\) Slide Down  (h) Hammer On  (p) Pull Off  (b) Bend (r) Release (v) Vibrato


E|--------------------------------------------------------------------------------------|
B|-------------12-------------------------------------------12--------------------------|
G|-------------11-------------------------------------------11--------------------------|
D|-------------9--------------------------------------------9----------7r8r7r5r7r5r4r5r-|
A|--------------------------------------------------------------------------------------|
E|-0-0-0-0-0-0----0-0-0-0-0-0-0-1-1-1-1-1-1-1-1-0-0-0-0-0-0----0-0-0-0------------------|



E|--------------------------------------------------------------------------------------|
B|-------------12-------------------------------------------12--------------------------|
G|-------------11-------------------------------------------11---------7r8r7r5r7r5r4r5r-|
D|-------------9--------------------------------------------9---------------------------|
A|--------------------------------------------------------------------------------------|
E|-0-0-0-0-0-0----0-0-0-0-0-0-0-1-1-1-1-2-2-2-2-0-0-0-0-0-0----0-0-0-0------------------|



E|---------------------------------------------------------------------------------------|
B|---------------------------------------------------------------------------------------|
G|---------------------------------------------------------------------------------------|
D|---------------------------------------------------------------------------------------|
A|-----------------------------------------3b3b3b----------------------5-----6-----3---6-|
E|-1-1-1-1-1-1-1-1-3b0-0-1-1-1-1-1-1-1-3b0-------1-1-1-1-1-1-1-1-3b0-0---0-0---0-0---0---|



E|------------------------------------------------------------------------------------|
B|------------------------------------------------------------------------------------|
G|------------------------------------------------------------------------------7-7-8-|
D|-----------------------------------------3b3b3b----------------------5v-6v-3v-5-5-5-|
A|------------------------------------------------------------------------------------|
E|-1-1-1-1-1-1-1-1-3b0-0-1-1-1-1-1-1-1-3b0-------1-1-1-1-1-1-1-1-3b0-0----------------|



E|-------------------------------------------------------------------------------|
B|-----------------8-8-----------------------------------------------------------|
G|-----------3---3-5-5-3-5-6-5-3-5-3---7-7-----------------------------------7-7-|
D|-3-5-6-5-6---6---------------------6-5-5-3-5-6-5-3-5-3---7-7---7-----------5-5-|
A|-------------------------------------------------------6-5-5-6-5-6-5-6-5-6-----|
E|-------------------------------------------------------------------------------|



E|---------------------------------------------------------|
B|-----------------8-8-----4-------------------------------|
G|-----------3---3-5-5-5-6---6-5-6-5-3-8-8-----3-----------|
D|-3-5-6-5-6---6-----------------------6-6-5-6---6-5-3-----|
A|-----------------------------------------------------6-5-|
E|---------------------------------------------------------|



E|-------------------------------------------------------------------------------|
B|-------------------------------------------------------------------------------|
G|---------------------------3---3-5-3-------------------------------------------|
D|-----3-6-5-----5-6-3-----5---6-------3-------5-3-----------3-------------------|
A|---------------------------------------6---------6-----5-6---6-5-6-5-3---------|
E|-0-0-------0-0-------0-0-----------------0-0-------0-0-----------------6-5-3-0-|



E|-----------------------------------------------------------------------------------|
B|-----------------------------------------------------------------------------------|
G|---------------------------3---3-5-3-----------------------------------------------|
D|-----3-6-5-----5-6-3-----5---6-------3-------5-3-----------3-----------------------|
A|---------------------------------------6---------6-----5-6---6-5-6-5-3-------------|
E|-0-0-------0-0-------0-0-----------------0-0-------0-0-----------------3p0-5p0-1-0-|



E|----------------------------------------|
B|----------------------------------------|
G|----------------------------------------|
D|----------------------------------------|
A|----------------------------------------|
E|-0-0-0-3v-8v-5v-6v-5v-3v-8v-10-0-0-0-0--|



E|-----------------------------------------------------------------------------|
B|-----------------------------------------------------------------------------|
G|---------------------------------------------------------------------------1-|
D|---------------------------------------------------------------------------1-|
A|-------------------------------------------------------0h3h5-0h5h7-0h3h5-0-1-|
E|-0-0-0-0-0-0-0-0-0-0-0-0-0-0-0-0-0-0-5b0-0-0-0-0-0-0-0-----------------------|



E|-------------------------------------------------------------------------------|
B|-------------------------------------------------------------------------------|
G|-------------------------------------------------------------------------------|
D|-------------------------------------------------------0h3h5-0h5h7-0h7h8-0h5h7-|
A|-------------------------------------------------------------------------------|
E|-0-0-0-0-0-0-0-0-0-0-0-0-0-0-0-0-0-0-6b0-0-0-0-0-0-0-0-------------------------|



E|-----------------------------------21-----------------------------------------|
B|-----------------------------------20-----------------------------------------|
G|---------------1-4-3-1-------------18-----------------------------------------|
D|-0h3h5-0h1h3-0-1-4-3-1--------------------------------------------------------|
A|---------------1-4-3-1--------------------------------------------------------|
E|-----------------------0-0-0-0-0-0----0-0-1-1-1-1-1-1-0-0-0-0-0-0-0-0-0-0-0-0-|



E|-----------------------------------------------------------------------|
B|-----------------------------------------------------------------------|
G|-------5b0p3p5---------------------------------------------------------|
D|-5v-3v-----------------------------------------------------------------|
A|-----------------------------------------------------------0h1h3-0h1h3-|
E|---------------0-0-0-0-0-0-0-0-0-0-0-0-0-3v-5v-0h3h5-0h3h5-------------|



E|-------------21-------------------------------------------------------------------|
B|-------------20-------------------------------------------------------------------|
G|-------------18-----------------------------------------------7b0h5h7-------------|
D|--------------------------------------------------------7v-5v---------------------|
A|----------------------------------------------------------------------------------|
E|-0-0-0-0-0-0----0-0-1-1-1-1-1-1-0-0-0-0-0-0-0-0-0-0-0-0---------------0-0-0-0-0-0-|



E|------------------------------------------------------------------------------|
B|-----------------------------------------------------------12-8-7-12-14-15-14-|
G|-----------------------------------------------------------11-7-6-11-13-14-13-|
D|-----------------------------------------------------------9--5-4-9--11-12-11-|
A|---------------------------------0h1h3-0h1h3----------------------------------|
E|-0-0-0-0-0-0-0-3v-5v-0h3h5-0h3h5-------------0-0-0-0-0-0-0--------------------|
Tap to rate this tab
 
# A B C D E F G H I J K L M N O P Q R S T U V W X Y Z