Song name
# A B C D E F G H I J K L M N O P Q R S T U V W X Y Z

Misc Unsigned Bands - That Cavalier Attitude - Promises Are Lies tab

-------------------------------------------------------------------------------
                             Promises Are Lies - That Cavalier Attitude
-------------------------------------------------------------------------------
Tabbed by: Chris Inston
E-mail: thatcavalierattitude@gmail.com

Tuning:DADGBE

e|---------------------------------------------------------------------------|
B|---------------------------------------------------------------------------|
G|---------------------------------------------------------------------------|    
D|--------------------10----------------------10--------------10-------------|
A|---(8)-(8)-(8)-(8)--8------(8)-(8)-(8)-(8)--8------(8)-(8)--8--------------|
D|----8---8---8---8---8-------8---8---8---8---8-------8---8---8--------------|

e|---------------------------------------------------------------------------|
B|---------------------------------------------------------------------------|
G|---------------------------------------------------------------------------|
D|--------------------10----------------------10--------------10-------------|
A|---(8)-(8)-(8)-(8)--8------(8)-(8)-(8)-(8)--8------(8)-(8)--8--------------|
D|----8---8---8---8---8-------8---8---8---8---8-------8---8---8--------------|

e|---------------------------------------------------------------------------|
B|---------------------------------------------------------------------------|
G|--------------------10----------------------10--------------10-------------|
D|--------------------10----------------------10--------------10-------------|
A|---(8)-(8)-(8)-(8)--8------(8)-(8)-(8)-(8)--8------(8)-(8)--8--------------|
D|----0---0---0---0---0-------0---0---0---0---0-------0---0---0--------------|

e|---------------------------------------------------------------------------|
B|---------------------------------------------------------------------------|
G|---------------------------------------------------------------------------|
D|--------------------5---------------5-\------------------------------------|    X2
A|---(3)-(3)-(3)-(3)--3------(3)-(3)--3-\------------------------------------|
D|----3---3---3---3---3-------3---3---3-\------------------------------------|

e|---------------------------------------------------------------------------|
B|---------------------------------------------------------------------------|
G|---------------------------------------------------------------------------|
D|----------------10------------------------------------------10--8--7-------|
A|--------------------8--7----------------7--8--10-------8-------------------|
D|--(0)8----8--8------------(0)8----8--8------------0------------------------|
      h                       h                     [-----------------]
e|---------------------------------------------------------------------------|
B|---------------------------------------------------------------------------|
G|---------------------------------------------------------------------------|
D|-------------3---5---------------------------------------------------------|
A|---------3-----------------------------------------------------------------|
D|--(0)3---------------------------------------------------------------------|
      h            .



************************************

| /   slide up
| \   slide down
| h   hammer-on
| p   pull-off
| ~   vibrato
| +   harmonic
| x   Mute note
| b   Bend
| pb  Pre-bend
| br  Bend release
| pbr Pre-bend release
| brb Bend release bend

************************************
Tap to rate this tab
# A B C D E F G H I J K L M N O P Q R S T U V W X Y Z