Song name
# A B C D E F G H I J K L M N O P Q R S T U V W X Y Z

Misc Unsigned Bands - Pond - Moth Wings tab

-------------------------------------------------------------------------------
                             Moth Wings - Pond
-------------------------------------------------------------------------------
Tabbed by: Lachie Gilmour
E-mail: lachie.gee.mour@gmail.com

Tuning: Standard

e|---------------------------------------------------------------------------------|
b|---------------------------------------------------------------------------------|
g|---------------------------------------------------------------------------| x 6-|
d|--------------------------------5------------------------------------------------|
a|--5h7--5-7--5h7h5-----------------7--5h7 7---------------------------------------|
e|--------------------8-7--5-5-----------------------------------------------------|

e|--------------------------------------------------------------------------------|
b|-777777777777--9999-------------------------------------------------------------|
g|-777777777777--9999-------------------------------------------------------| x 1-|
d|-777777777777--9999-------------------------------------------------------------|
a|-555555555555--7777-------------------------------------------------------------|
e|--------------------------------------------------------------------------------|

e|---------------------------------------------------------------------------------|
b|---------------------------------------------------------------------------------|
g|---------------------------------------------------------------------------| x 7-|
d|---------------------------------------------------------------------------------|
a|-------7h5--------0------0-------------------------------------------------------|
e|--7-7------7-5-5-----0h4--4------------------------------------------------------|

e|---------------------------------------------------------------------------------|
b|---------------------------------------------------------------------------------|
g|---------------------------------------------------------------------------| x 1-|
d|----------------7-7-7-7-7-7------------------------------------------------------|
a|-------7h5------5-5-5-5-5-5------------------------------------------------------|
e|--7-7------7-5-------------------------------------------------------------------|

*Repeat*

Song is played with Wah, fun to play, super groovy, enjoy.
Tap to rate this tab
 
# A B C D E F G H I J K L M N O P Q R S T U V W X Y Z