Song name
# A B C D E F G H I J K L M N O P Q R S T U V W X Y Z

Misc Unsigned Bands - Frederik Jyll - The Day I Knew chords

Highlighted       Show chord diagrams
Intro/Verse:
e|-------------------------------------------------------------------|
B|-------------------------------------------------------------------|
G|-----------5----------5------5-----------4----------4------4-------|
D|---7---7------7---7------7-------5---5------5---5------5-----------|
A|-------------------------------------------------------------------|
E|-------------------------------------------------------------------|

e|-------------------------------------------------------------------|
B|-------------------------------------------------------------------|
G|-----------2----------2------2-----------4---------4-----4---------|
D|---3---3------3---3------3-------5---5-----5---5-----5-------------|
A|-------------------------------------------------------------------|
E|-------------------------------------------------------------------| x2

  Am(add9)    G                  Fmaj7       G
HOW!! Do I know if this is worth it
 Am(add9)     G                 Fmaj7                G
HOW!! Can I get myself through it (when I feel this way)
 Am(add9)     G                 Fmaj7        G
HOW!! Do I know if I can do it
        Am(add9)      G                 Fmaj7   G
And how can I be sure If this is really me

Am(add9)    G                  Fmaj7       G
What can I do when I'm stranded.
Am(add9) G                       Fmaj7       G
What is now supposed to happen
Am(add9)    G                       Fmaj7              G
What can I do when I never planned this
        Am(add9)           G                          Fmaj7   
                    G
And what is now supposed to make me sure enough to complete...

       Am                     G
But you have never noticed
       Fmaj7                    Em
My work and what I've done
       Fmaj7                    Em
But now it's time for breaking
                   Fmaj7                   E7
Through to you and all your thoughts..
       Am                    G
But you won't ever notice
       Fmaj7                 Em
My work and what I'll do
   Fmaj7                 Em
If I don't start to do what
                   Fmaj7              E7
I should've done the day I knew..


I!! Have used you as a source of, inspiration
I!! Have seen the good things inside you, (burning through)
But I!! Won't never ever find you.
No I will never find you 'cause the real you is gone..


But you have never noticed
My work and what I've done
But now it's time for breaking
Through to you and all your thoughts..
But you won't ever notice
My work and what I'll do
If I don't start to do what
I should've done the day I knew..


Am                   Fmaj7
   The day I knew….
                     G
   The day I Knew...
                     Esus4   E7
  The day I knew...   x2

[Same as intro]

HOW!! Do I know if this is worth it
HOW!! Can I get myself through it (when I feel this way)
HOW!! Do I know if I can do it
And how can I be sure If this is really me/what I wanna do.


But you have never noticed
My work and what I've done
But now it's time for breaking
Through to you and all your thoughts..
But you won't ever notice
My work and what I'll do
If I don't start to do what
I should've done the day I knew..


But you have never noticed
My work and what I've done
But now it's time for breaking
Through to you and all your thoughts..
But you won't ever notice
My work and what I'll do
If I don't start to do what
I should've done the day I knew..
Tap to rate this tab
# A B C D E F G H I J K L M N O P Q R S T U V W X Y Z